  0
SECTION
  2
HEADER
  9
$ACADVER
  1
AC1014
  9
$ACADMAINTVER
 70
     9
  9
$DWGCODEPAGE
  3
ANSI_1252
  9
$INSBASE
 10
-291535.64
 20
-92856.92
 30
0.0
  9
$EXTMIN
 10
0.0
 20
0.0
 30
0.0
  9
$EXTMAX
 10
431.51
 20
276.93
 30
0.0
  9
$TDCREATE
 40
2456856.0
  9
$TDUPDATE
 40
2456856.0
  9
$LIMMIN
 10
0.0
 20
0.0
  9
$LIMMAX
 10
12.0
 20
9.0
  9
$ORTHOMODE
 70
     0
  9
$REGENMODE
 70
     1
  9
$FILLMODE
 70
     1
  9
$QTEXTMODE
 70
     0
  9
$MIRRTEXT
 70
     1
  9
$DRAGMODE
 70
     2
  9
$LTSCALE
 40
1.0
  9
$OSMODE
 70
    37
  9
$ATTMODE
 70
     1
  9
$TEXTSIZE
 40
0.2
  9
$TRACEWID
 40
0.05
  9
$TEXTSTYLE
  7
STANDARD
  9
$CLAYER
  8
0
  9
$CELTYPE
  6
BYLAYER
  9
$CECOLOR
 62
   256
  9
$CELTSCALE
 40
1.0
  9
$DELOBJ
 70
     1
  9
$DISPSILH
 70
     0
  9
$DIMSCALE
 40
1.0
  9
$DIMASZ
 40
0.18
  9
$DIMEXO
 40
0.0625
  9
$DIMDLI
 40
0.38
  9
$DIMRND
 40
0.0
  9
$DIMDLE
 40
0.0
  9
$DIMEXE
 40
0.18
  9
$DIMTP
 40
0.0
  9
$DIMTM
 40
0.0
  9
$DIMTXT
 40
0.18
  9
$DIMCEN
 40
0.09
  9
$DIMTSZ
 40
0.0
  9
$DIMTOL
 70
     0
  9
$DIMLIM
 70
     0
  9
$DIMTIH
 70
     1
  9
$DIMTOH
 70
     1
  9
$DIMSE1
 70
     0
  9
$DIMSE2
 70
     0
  9
$DIMTAD
 70
     0
  9
$DIMZIN
 70
     0
  9
$DIMBLK
  1

  9
$DIMASO
 70
     1
  9
$DIMSHO
 70
     1
  9
$DIMPOST
  1

  9
$DIMAPOST
  1

  9
$DIMALT
 70
     0
  9
$DIMALTD
 70
     2
  9
$DIMALTF
 40
25.4
  9
$DIMLFAC
 40
1.0
  9
$DIMTOFL
 70
     0
  9
$DIMTVP
 40
0.0
  9
$DIMTIX
 70
     0
  9
$DIMSOXD
 70
     0
  9
$DIMSAH
 70
     0
  9
$DIMBLK1
  1

  9
$DIMBLK2
  1

  9
$DIMSTYLE
  2
STANDARD
  9
$DIMCLRD
 70
     0
  9
$DIMCLRE
 70
     0
  9
$DIMCLRT
 70
     0
  9
$DIMTFAC
 40
1.0
  9
$DIMGAP
 40
0.09
  9
$DIMJUST
 70
     0
  9
$DIMSD1
 70
     0
  9
$DIMSD2
 70
     0
  9
$DIMTOLJ
 70
     1
  9
$DIMTZIN
 70
     0
  9
$DIMALTZ
 70
     0
  9
$DIMALTTZ
 70
     0
  9
$DIMFIT
 70
     3
  9
$DIMUPT
 70
     0
  9
$DIMUNIT
 70
     2
  9
$DIMDEC
 70
     4
  9
$DIMTDEC
 70
     4
  9
$DIMALTU
 70
     2
  9
$DIMALTTD
 70
     2
  9
$DIMTXSTY
  7
STANDARD
  9
$DIMAUNIT
 70
     0
  9
$LUNITS
 70
     2
  9
$LUPREC
 70
     4
  9
$SKETCHINC
 40
0.1
  9
$FILLETRAD
 40
0.5
  9
$AUNITS
 70
     0
  9
$AUPREC
 70
     0
  9
$MENU
  1
.
  9
$ELEVATION
 40
0.0
  9
$PELEVATION
 40
0.0
  9
$THICKNESS
 40
0.0
  9
$LIMCHECK
 70
     0
  9
$CHAMFERA
 40
0.5
  9
$CHAMFERB
 40
0.5
  9
$CHAMFERC
 40
1.0
  9
$CHAMFERD
 40
0.0
  9
$SKPOLY
 70
     0
  9
$TDINDWG
 40
0.0000000116
  9
$TDUSRTIMER
 40
0.0000000116
  9
$USRTIMER
 70
     1
  9
$ANGBASE
 50
0.0
  9
$ANGDIR
 70
     0
  9
$PDMODE
 70
     0
  9
$PDSIZE
 40
0.0
  9
$PLINEWID
 40
0.0
  9
$COORDS
 70
     1
  9
$SPLFRAME
 70
     0
  9
$SPLINETYPE
 70
     6
  9
$SPLINESEGS
 70
     8
  9
$ATTDIA
 70
     0
  9
$ATTREQ
 70
     1
  9
$HANDLING
 70
     1
  9
$HANDSEED
  5
F4240
  9
$SURFTAB1
 70
     6
  9
$SURFTAB2
 70
     6
  9
$SURFTYPE
 70
     6
  9
$SURFU
 70
     6
  9
$SURFV
 70
     6
  9
$UCSNAME
  2

  9
$UCSORG
 10
0.0
 20
0.0
 30
0.0
  9
$UCSXDIR
 10
1.0
 20
0.0
 30
0.0
  9
$UCSYDIR
 10
0.0
 20
1.0
 30
0.0
  9
$PUCSNAME
  2

  9
$PUCSORG
 10
0.0
 20
0.0
 30
0.0
  9
$PUCSXDIR
 10
1.0
 20
0.0
 30
0.0
  9
$PUCSYDIR
 10
0.0
 20
1.0
 30
0.0
  9
$USERI1
 70
     0
  9
$USERI2
 70
     0
  9
$USERI3
 70
     0
  9
$USERI4
 70
     0
  9
$USERI5
 70
     0
  9
$USERR1
 40
0.0
  9
$USERR2
 40
0.0
  9
$USERR3
 40
0.0
  9
$USERR4
 40
0.0
  9
$USERR5
 40
0.0
  9
$WORLDVIEW
 70
     1
  9
$SHADEDGE
 70
     3
  9
$SHADEDIF
 70
    70
  9
$TILEMODE
 70
     1
  9
$MAXACTVP
 70
    64
  9
$PINSBASE
 10
0.0
 20
0.0
 30
0.0
  9
$PLIMCHECK
 70
     0
  9
$PEXTMIN
 10
1.000000000000000E+20
 20
1.000000000000000E+20
 30
1.000000000000000E+20
  9
$PEXTMAX
 10
-1.000000000000000E+20
 20
-1.000000000000000E+20
 30
-1.000000000000000E+20
  9
$PLIMMIN
 10
0.0
 20
0.0
  9
$PLIMMAX
 10
12.0
 20
9.0
  9
$UNITMODE
 70
     0
  9
$VISRETAIN
 70
     1
  9
$PLINEGEN
 70
     0
  9
$PSLTSCALE
 70
     1
  9
$TREEDEPTH
 70
  3020
  9
$PICKSTYLE
 70
     1
  9
$CMLSTYLE
  2
STANDARD
  9
$CMLJUST
 70
     0
  9
$CMLSCALE
 40
1.0
  9
$PROXYGRAPHICS
 70
     1
  9
$MEASUREMENT
 70
     0
  0
ENDSEC
  0
SECTION
  2
CLASSES
  0
CLASS
  1
ACDBDICTIONARYWDFLT
  2
AcDbDictionaryWithDefault
  3
ObjectDBX Classes
 90
        0
280
     0
281
     0
  0
CLASS
  1
TABLESTYLE
  2
AcDbTableStyle
  3
ObjectDBX Classes
 90
     2047
280
     0
281
     0
  0
CLASS
  1
DICTIONARYVAR
  2
AcDbDictionaryVar
  3
ObjectDBX Classes
 90
        0
280
     0
281
     0
  0
CLASS
  1
XRECORD
  2
AcDbXrecord
  3
AutoCAD 2000
 90
        0
280
     0
281
     0
  0
CLASS
  1
LWPOLYLINE
  2
AcDbPolyline
  3
AutoCAD 2000
 90
        0
280
     0
281
     1
  0
CLASS
  1
HATCH
  2
AcDbHatch
  3
AutoCAD 2000
 90
        0
280
     0
281
     1
  0
CLASS
  1
ACDBPLACEHOLDER
  2
AcDbPlaceHolder
  3
ObjectDBX Classes
 90
        0
280
     0
281
     0
  0
CLASS
  1
LAYOUT
  2
AcDbLayout
  3
ObjectDBX Classes
 90
        0
280
     0
281
     0
  0
CLASS
  1
TEXT
  2
AcDbText
  3
AutoCAD 2000
 90
        0
280
     0
281
     1
  0
ENDSEC
  0
SECTION
  2
TABLES
  0
TABLE
  2
VPORT
  5
8
330
0
100
AcDbSymbolTable
 70
     1
  0
VPORT
  5
29
100
AcDbSymbolTableRecord
100
AcDbViewportTableRecord
  2
*ACTIVE
 70
     0
 10
0.0
 20
0.0
 11
1.0
 21
1.0
 12
215.755
 22
138.465
 13
0.0
 23
0.0
 14
0.5
 24
0.5
 15
0.5
 25
0.5
 16
0.0
 26
0.0
 36
1.0
 17
0.0
 27
0.0
 37
0.0
 40
276.93
 41
1.5581916
 42
50.0
 43
0.0
 44
0.0
 50
0.0
 51
0.0
 71
     0
 72
   100
 73
     1
 74
     3
 75
     0
 76
     0
 77
     0
 78
     0
  0
ENDTAB
  0
TABLE
  2
LTYPE
  5
5
330
0
100
AcDbSymbolTable
 70
     1
  0
LTYPE
  5
14
330
5
100
AcDbSymbolTableRecord
100
AcDbLinetypeTableRecord
  2
BYBLOCK
 70
     0
  3

 72
    65
 73
     0
 40
0.0
  0
LTYPE
  5
15
330
5
100
AcDbSymbolTableRecord
100
AcDbLinetypeTableRecord
  2
BYLAYER
 70
     0
  3

 72
    65
 73
     0
 40
0.0
  0
LTYPE
  5
16
330
5
100
AcDbSymbolTableRecord
100
AcDbLinetypeTableRecord
  2
CONTINUOUS
 70
     0
  3
Solid line
 72
    65
 73
     0
 40
0.0
  0
ENDTAB
  0
TABLE
  2
LAYER
  5
2
330
0
100
AcDbSymbolTable
 70
    23
  0
LAYER
  5
10
330
2
100
AcDbSymbolTableRecord
100
AcDbLayerTableRecord
  2
0
 70
     0
 62
     7
  6
CONTINUOUS
  0
LAYER
  5
2E
330
2
100
AcDbSymbolTableRecord
100
AcDbLayerTableRecord
  2
UKPM - scale and labels
 70
     0
 62
   252
  6
CONTINUOUS
  0
LAYER
  5
2F
330
2
100
AcDbSymbolTableRecord
100
AcDbLayerTableRecord
  2
UKPM - grid
 70
     0
 62
   252
  6
CONTINUOUS
  0
LAYER
  5
30
330
2
100
AcDbSymbolTableRecord
100
AcDbLayerTableRecord
  2
Roadside_Text
 70
     0
 62
   251
  6
CONTINUOUS
  0
LAYER
  5
31
330
2
100
AcDbSymbolTableRecord
100
AcDbLayerTableRecord
  2
Network_Or_Polygon_Closing_Geometry_Inferred_Property_Closing_Line
 70
     0
 62
    12
  6
CONTINUOUS
  0
LAYER
  5
32
330
2
100
AcDbSymbolTableRecord
100
AcDbLayerTableRecord
  2
Network_Or_Polygon_Closing_Geometry_Link_Polygon_Closing_Link_Line
 70
     0
 62
    12
  6
CONTINUOUS
  0
LAYER
  5
33
330
2
100
AcDbSymbolTableRecord
100
AcDbLayerTableRecord
  2
Landform_Top_Of_Slope_Line
 70
     0
 62
    32
  6
CONTINUOUS
  0
LAYER
  5
34
330
2
100
AcDbSymbolTableRecord
100
AcDbLayerTableRecord
  2
Landform_Bottom_Of_Slope_Line
 70
     0
 62
    30
  6
CONTINUOUS
  0
LAYER
  5
35
330
2
100
AcDbSymbolTableRecord
100
AcDbLayerTableRecord
  2
Building_Outline_Line
 70
     0
 62
   251
  6
CONTINUOUS
  0
LAYER
  5
36
330
2
100
AcDbSymbolTableRecord
100
AcDbLayerTableRecord
  2
Structure_Point
 70
     0
 62
   255
  6
CONTINUOUS
  0
LAYER
  5
37
330
2
100
AcDbSymbolTableRecord
100
AcDbLayerTableRecord
  2
Building_Division_Line
 70
     0
 62
   251
  6
CONTINUOUS
  0
LAYER
  5
38
330
2
100
AcDbSymbolTableRecord
100
AcDbLayerTableRecord
  2
Structure_Text
 70
     0
 62
   251
  6
CONTINUOUS
  0
LAYER
  5
39
330
2
100
AcDbSymbolTableRecord
100
AcDbLayerTableRecord
  2
General_Feature_Line
 70
     0
 62
   250
  6
CONTINUOUS
  0
LAYER
  5
3A
330
2
100
AcDbSymbolTableRecord
100
AcDbLayerTableRecord
  2
Road_Or_Track_Road_Name_Or_Classification_Text
 70
     0
 62
   251
  6
CONTINUOUS
  0
LAYER
  5
3B
330
2
100
AcDbSymbolTableRecord
100
AcDbLayerTableRecord
  2
Road_Or_Track_Public_Line
 70
     0
 62
   250
  6
CONTINUOUS
  0
LAYER
  5
3C
330
2
100
AcDbSymbolTableRecord
100
AcDbLayerTableRecord
  2
Terrain_And_Height_Text
 70
     0
 62
   251
  6
CONTINUOUS
  0
LAYER
  5
3D
330
2
100
AcDbSymbolTableRecord
100
AcDbLayerTableRecord
  2
Terrain_And_Height_Spot_Height_Point
 70
     0
 62
    12
  6
CONTINUOUS
  0
LAYER
  5
3E
330
2
100
AcDbSymbolTableRecord
100
AcDbLayerTableRecord
  2
General_Surface_Text
 70
     0
 62
   251
  6
CONTINUOUS
  0
LAYER
  5
3F
330
2
100
AcDbSymbolTableRecord
100
AcDbLayerTableRecord
  2
Rail_Standard_Gauge_Track_Line
 70
     0
 62
   250
  6
CONTINUOUS
  0
LAYER
  5
40
330
2
100
AcDbSymbolTableRecord
100
AcDbLayerTableRecord
  2
General_Surface_Step_Line
 70
     0
 62
   250
  6
CONTINUOUS
  0
LAYER
  5
41
330
2
100
AcDbSymbolTableRecord
100
AcDbLayerTableRecord
  2
Buildings_Or_Structure_Text
 70
     0
 62
   251
  6
CONTINUOUS
  0
LAYER
  5
42
330
2
100
AcDbSymbolTableRecord
100
AcDbLayerTableRecord
  2
Rail_Buffer_Line
 70
     0
 62
   250
  6
CONTINUOUS
  0
LAYER
  5
43
330
2
100
AcDbSymbolTableRecord
100
AcDbLayerTableRecord
  2
Roadside_Structure_Point
 70
     0
 62
   255
  6
CONTINUOUS
  0
ENDTAB
  0
TABLE
  2
STYLE
  5
3
330
0
100
AcDbSymbolTable
 70
     1
  0
STYLE
  5
11
330
3
100
AcDbSymbolTableRecord
100
AcDbTextStyleTableRecord
  2
STANDARD
 70
     0
 40
0.0
 41
1.0
 50
0.0
 71
     0
 42
0.2
  3
txt
  4

  0
ENDTAB
  0
TABLE
  2
VIEW
  5
6
330
0
100
AcDbSymbolTable
 70
     0
  0
ENDTAB
  0
TABLE
  2
UCS
  5
7
330
0
100
AcDbSymbolTable
 70
     0
  0
ENDTAB
  0
TABLE
  2
APPID
  5
9
330
0
100
AcDbSymbolTable
 70
     1
  0
APPID
  5
12
330
9
100
AcDbSymbolTableRecord
100
AcDbRegAppTableRecord
  2
ACAD
 70
     0
  0
ENDTAB
  0
TABLE
  2
DIMSTYLE
  5
A
330
0
100
AcDbSymbolTable
 70
     1
  0
DIMSTYLE
105
27
330
A
100
AcDbSymbolTableRecord
100
AcDbDimStyleTableRecord
  2
STANDARD
 70
     0
  3

  4

  5

  6

  7

 40
1.0
 41
0.18
 42
0.0625
 43
0.38
 44
0.18
 45
0.0
 46
0.0
 47
0.0
 48
0.0
140
0.18
141
0.09
142
0.0
143
25.4
144
1.0
145
0.0
146
1.0
147
0.09
 71
     0
 72
     0
 73
     1
 74
     1
 75
     0
 76
     0
 77
     0
 78
     0
170
     0
171
     2
172
     0
173
     0
174
     0
175
     0
176
     0
177
     0
178
     0
270
     2
271
     4
272
     4
273
     2
274
     2
340
11
275
     0
280
     0
281
     0
282
     0
283
     1
284
     0
285
     0
286
     0
287
     3
288
     0
  0
ENDTAB
  0
TABLE
  2
BLOCK_RECORD
  5
1
330
0
100
AcDbSymbolTable
 70
     2
  0
BLOCK_RECORD
  5
1F
330
1
100
AcDbSymbolTableRecord
100
AcDbBlockTableRecord
  2
*MODEL_SPACE
  0
BLOCK_RECORD
  5
1B
330
1
100
AcDbSymbolTableRecord
100
AcDbBlockTableRecord
  2
*PAPER_SPACE
  0
ENDTAB
  0
ENDSEC
  0
SECTION
  2
BLOCKS
  0
BLOCK
  5
20
330
1F
100
AcDbEntity
  8
0
100
AcDbBlockBegin
  2
*MODEL_SPACE
 70
     0
 71
     0
 10
-291535.64
 20
-92856.92
 30
0.0
  3
*MODEL_SPACE
  1

  0
ENDBLK
  5
21
330
1F
100
AcDbEntity
  8
0
100
AcDbBlockEnd
  0
BLOCK
  5
1C
330
1B
100
AcDbEntity
  8
0
 67
     1
100
AcDbBlockBegin
  2
*PAPER_SPACE
 70
     0
 71
     0
 10
-291535.64
 20
-92856.92
 30
0.0
  3
*PAPER_SPACE
  1

  0
ENDBLK
  5
1D
330
1B
100
AcDbEntity
 67
     1
  8
0
100
AcDbBlockEnd
  0
ENDSEC
  0
SECTION
  2
ENTITIES
  0
MTEXT
  5
AAE60
330
1F
100
AcDbEntity
  8
Buildings_Or_Structure_Text
100
AcDbMText
 10
213.61
 20
184.38
 30
0.0
 40
1.5
 71
     8
 72
     1
  1
48
 50
128.3
  0
MTEXT
  5
AAE61
330
1F
100
AcDbEntity
  8
Buildings_Or_Structure_Text
100
AcDbMText
 10
79.06
 20
178.58
 30
0.0
 40
1.5
 71
     8
 72
     1
  1
Little Bystock
 50
25.4
  0
MTEXT
  5
AAE62
330
1F
100
AcDbEntity
  8
General_Surface_Text
100
AcDbMText
 10
136.96
 20
207.93
 30
0.0
 40
1.75
 71
     5
 72
     1
  1
Car Park
 50
0.0
  0
MTEXT
  5
AAE63
330
1F
100
AcDbEntity
  8
Buildings_Or_Structure_Text
100
AcDbMText
 10
104.11
 20
190.03
 30
0.0
 40
1.5
 71
     8
 72
     1
  1
5
 50
114.5
  0
MTEXT
  5
AAE64
330
1F
100
AcDbEntity
  8
Buildings_Or_Structure_Text
100
AcDbMText
 10
91.81
 20
212.73
 30
0.0
 40
1.5
 71
     8
 72
     1
  1
9
 50
97.6
  0
MTEXT
  5
AAE65
330
1F
100
AcDbEntity
  8
Buildings_Or_Structure_Text
100
AcDbMText
 10
178.46
 20
205.13
 30
0.0
 40
1.5
 71
     8
 72
     1
  1
53a
 50
128.3
  0
MTEXT
  5
AAE66
330
1F
100
AcDbEntity
  8
Road_Or_Track_Road_Name_Or_Classification_Text
100
AcDbMText
 10
225.26
 20
188.93
 30
0.0
 40
1.75
 71
     5
 72
     1
  1
QUEEN STREET
 50
308.3
  0
MTEXT
  5
AAE67
330
1F
100
AcDbEntity
  8
Road_Or_Track_Road_Name_Or_Classification_Text
100
AcDbMText
 10
113.66
 20
198.53
 30
0.0
 40
1.75
 71
     5
 72
     1
  1
BYSTOCK TERRACE
 50
294.4
  0
MTEXT
  5
AAE68
330
1F
100
AcDbEntity
  8
Terrain_And_Height_Text
100
AcDbMText
 10
238.61
 20
188.91
 30
0.0
 40
1.75
 71
     7
 72
     1
  1
39.0m
 50
0.0
  0
MTEXT
  5
AAE69
330
1F
100
AcDbEntity
  8
Buildings_Or_Structure_Text
100
AcDbMText
 10
161.46
 20
190.23
 30
0.0
 40
1.5
 71
     8
 72
     1
  1
1
 50
219.6
  0
MTEXT
  5
AAE6A
330
1F
100
AcDbEntity
  8
Buildings_Or_Structure_Text
100
AcDbMText
 10
241.51
 20
193.18
 30
0.0
 40
2.5
 71
     7
 72
     1
  1
Telephone Exchange
 50
0.0
  0
MTEXT
  5
AAE6B
330
1F
100
AcDbEntity
  8
Buildings_Or_Structure_Text
100
AcDbMText
 10
99.21
 20
200.93
 30
0.0
 40
1.5
 71
     8
 72
     1
  1
6 to 8
 50
114.0
  0
MTEXT
  5
AAE6C
330
1F
100
AcDbEntity
  8
Buildings_Or_Structure_Text
100
AcDbMText
 10
191.76
 20
211.83
 30
0.0
 40
1.5
 71
     8
 72
     1
  1
53
 50
128.3
  0
MTEXT
  5
AAE6D
330
1F
100
AcDbEntity
  8
Buildings_Or_Structure_Text
100
AcDbMText
 10
173.25
 20
198.8
 30
0.0
 40
1.5
 71
     7
 72
     1
  1
54
 50
128.3
  0
MTEXT
  5
AAE6E
330
1F
100
AcDbEntity
  8
Road_Or_Track_Road_Name_Or_Classification_Text
100
AcDbMText
 10
80.86
 20
224.18
 30
0.0
 40
1.5
 71
     5
 72
     1
  1
QUEEN'S TERRACE
 50
5.1
  0
MTEXT
  5
AAE6F
330
1F
100
AcDbEntity
  8
Buildings_Or_Structure_Text
100
AcDbMText
 10
91.31
 20
218.48
 30
0.0
 40
1.5
 71
     8
 72
     1
  1
10
 50
97.6
  0
MTEXT
  5
AAE70
330
1F
100
AcDbEntity
  8
Terrain_And_Height_Text
100
AcDbMText
 10
192.11
 20
226.08
 30
0.0
 40
1.75
 71
     7
 72
     1
  1
39.6m
 50
0.0
  0
MTEXT
  5
AAE71
330
1F
100
AcDbEntity
  8
Structure_Text
100
AcDbMText
 10
181.61
 20
221.18
 30
0.0
 40
1.5
 71
     7
 72
     1
  1
LB
 50
0.0
  0
MTEXT
  5
AAE72
330
1F
100
AcDbEntity
  8
Terrain_And_Height_Text
100
AcDbMText
 10
133.01
 20
228.08
 30
0.0
 40
1.75
 71
     7
 72
     1
  1
39.0m
 50
0.0
  0
MTEXT
  5
AAE73
330
1F
100
AcDbEntity
  8
Structure_Text
100
AcDbMText
 10
185.16
 20
217.98
 30
0.0
 40
1.5
 71
     7
 72
     1
  1
TCBs
 50
0.0
  0
MTEXT
  5
AAE74
330
1F
100
AcDbEntity
  8
Buildings_Or_Structure_Text
100
AcDbMText
 10
271.11
 20
229.38
 30
0.0
 40
1.75
 71
     7
 72
     1
  1
Marcus House
 50
0.0
  0
MTEXT
  5
AAE75
330
1F
100
AcDbEntity
  8
Buildings_Or_Structure_Text
100
AcDbMText
 10
275.04
 20
232.89
 30
0.0
 40
1.375
 71
     7
 72
     1
  1
1 to 80
 50
0.0
  0
MTEXT
  5
AAE76
330
1F
100
AcDbEntity
  8
Buildings_Or_Structure_Text
100
AcDbMText
 10
169.68
 20
88.26
 30
0.0
 40
1.75
 71
     7
 72
     1
  1
Court
 50
0.0
  0
MTEXT
  5
AAE77
330
1F
100
AcDbEntity
  8
Buildings_Or_Structure_Text
100
AcDbMText
 10
179.19
 20
106.56
 30
0.0
 40
1.5
 71
     7
 72
     1
  1
to
 50
320.7
  0
MTEXT
  5
AAE78
330
1F
100
AcDbEntity
  8
Buildings_Or_Structure_Text
100
AcDbMText
 10
180.1
 20
108.4
 30
0.0
 40
1.5
 71
     7
 72
     1
  1
77
 50
321.0
  0
MTEXT
  5
AAE79
330
1F
100
AcDbEntity
  8
Buildings_Or_Structure_Text
100
AcDbMText
 10
185.98
 20
102.5
 30
0.0
 40
1.5
 71
     7
 72
     1
  1
82 to 101
 50
322.2
  0
MTEXT
  5
AAE7A
330
1F
100
AcDbEntity
  8
Buildings_Or_Structure_Text
100
AcDbMText
 10
177.96
 20
104.72
 30
0.0
 40
1.5
 71
     7
 72
     1
  1
81
 50
320.9
  0
MTEXT
  5
AAE7B
330
1F
100
AcDbEntity
  8
Buildings_Or_Structure_Text
100
AcDbMText
 10
167.63
 20
90.54
 30
0.0
 40
1.75
 71
     7
 72
     1
  1
Richmond
 50
0.0
  0
MTEXT
  5
AAE7C
330
1F
100
AcDbEntity
  8
Buildings_Or_Structure_Text
100
AcDbMText
 10
167.75
 20
108.36
 30
0.0
 40
1.5
 71
     7
 72
     1
  1
55
 50
50.8
  0
MTEXT
  5
AAE7D
330
1F
100
AcDbEntity
  8
Buildings_Or_Structure_Text
100
AcDbMText
 10
145.33
 20
89.53
 30
0.0
 40
1.5
 71
     7
 72
     1
  1
36 to 51
 50
50.1
  0
MTEXT
  5
AAE7E
330
1F
100
AcDbEntity
  8
Buildings_Or_Structure_Text
100
AcDbMText
 10
162.17
 20
70.39
 30
0.0
 40
1.5
 71
     7
 72
     1
  1
12 to 35
 50
141.0
  0
MTEXT
  5
AAE7F
330
1F
100
AcDbEntity
  8
Buildings_Or_Structure_Text
100
AcDbMText
 10
109.04
 20
53.28
 30
0.0
 40
1.5
 71
     7
 72
     1
  1
5
 50
108.8
  0
MTEXT
  5
AAE80
330
1F
100
AcDbEntity
  8
Buildings_Or_Structure_Text
100
AcDbMText
 10
135.82
 20
62.5
 30
0.0
 40
1.5
 71
     7
 72
     1
  1
11
 50
108.7
  0
MTEXT
  5
AAE81
330
1F
100
AcDbEntity
  8
Buildings_Or_Structure_Text
100
AcDbMText
 10
94.73
 20
50.18
 30
0.0
 40
1.5
 71
     7
 72
     1
  1
1
 50
108.7
  0
MTEXT
  5
AAE82
330
1F
100
AcDbEntity
  8
Buildings_Or_Structure_Text
100
AcDbMText
 10
97.2
 20
50.74
 30
0.0
 40
1.5
 71
     7
 72
     1
  1
to
 50
109.1
  0
MTEXT
  5
AAE83
330
1F
100
AcDbEntity
  8
Buildings_Or_Structure_Text
100
AcDbMText
 10
99.66
 20
52.17
 30
0.0
 40
1.5
 71
     7
 72
     1
  1
4
 50
109.6
  0
MTEXT
  5
AAE84
330
1F
100
AcDbEntity
  8
Buildings_Or_Structure_Text
100
AcDbMText
 10
90.19
 20
131.57
 30
0.0
 40
1.5
 71
     8
 72
     1
  1
15 16
 50
219.5
  0
MTEXT
  5
AAE85
330
1F
100
AcDbEntity
  8
Buildings_Or_Structure_Text
100
AcDbMText
 10
81.76
 20
124.43
 30
0.0
 40
1.5
 71
     8
 72
     1
  1
17
 50
220.5
  0
MTEXT
  5
AAE86
330
1F
100
AcDbEntity
  8
Buildings_Or_Structure_Text
100
AcDbMText
 10
98.86
 20
138.88
 30
0.0
 40
1.5
 71
     8
 72
     1
  1
13
 50
219.0
  0
MTEXT
  5
AAE87
330
1F
100
AcDbEntity
  8
Buildings_Or_Structure_Text
100
AcDbMText
 10
92.16
 20
125.93
 30
0.0
 40
1.75
 71
     5
 72
     1
  1
Hotel
 50
0.0
  0
MTEXT
  5
AAE88
330
1F
100
AcDbEntity
  8
General_Surface_Text
100
AcDbMText
 10
260.26
 20
112.13
 30
0.0
 40
1.5
 71
     3
 72
     1
  1
El Sub Sta
 50
39.0
  0
MTEXT
  5
AAE89
330
1F
100
AcDbEntity
  8
Buildings_Or_Structure_Text
100
AcDbMText
 10
95.46
 20
134.98
 30
0.0
 40
1.5
 71
     5
 72
     1
  1
14
 50
220.1
  0
MTEXT
  5
AAE8A
330
1F
100
AcDbEntity
  8
Buildings_Or_Structure_Text
100
AcDbMText
 10
258.48
 20
131.9
 30
0.0
 40
1.5
 71
     8
 72
     1
  1
37 to 43
 50
129.0
  0
MTEXT
  5
AAE8B
330
1F
100
AcDbEntity
  8
Buildings_Or_Structure_Text
100
AcDbMText
 10
268.16
 20
52.83
 30
0.0
 40
2.0
 71
     7
 72
     1
  1
Exeter College
 50
358.7
  0
MTEXT
  5
AAE8C
330
1F
100
AcDbEntity
  8
Buildings_Or_Structure_Text
100
AcDbMText
 10
272.71
 20
49.23
 30
0.0
 40
2.0
 71
     7
 72
     1
  1
(Annexe)
 50
0.0
  0
MTEXT
  5
AAE8D
330
1F
100
AcDbEntity
  8
General_Surface_Text
100
AcDbMText
 10
88.56
 20
141.83
 30
0.0
 40
1.5
 71
     3
 72
     1
  1
El Sub Sta
 50
40.2
  0
MTEXT
  5
AAE8E
330
1F
100
AcDbEntity
  8
Buildings_Or_Structure_Text
100
AcDbMText
 10
220.11
 20
121.06
 30
0.0
 40
1.5
 71
     7
 72
     1
  1
31
 50
128.9
  0
MTEXT
  5
AAE8F
330
1F
100
AcDbEntity
  8
Buildings_Or_Structure_Text
100
AcDbMText
 10
227.99
 20
120.69
 30
0.0
 40
1.75
 71
     7
 72
     1
  1
Jubilee
 50
0.0
  0
MTEXT
  5
AAE90
330
1F
100
AcDbEntity
  8
Buildings_Or_Structure_Text
100
AcDbMText
 10
234.91
 20
103.63
 30
0.0
 40
1.5
 71
     7
 72
     1
  1
35
 50
128.8
  0
MTEXT
  5
AAE91
330
1F
100
AcDbEntity
  8
Buildings_Or_Structure_Text
100
AcDbMText
 10
227.99
 20
116.98
 30
0.0
 40
1.75
 71
     7
 72
     1
  1
Court
 50
0.0
  0
MTEXT
  5
AAE92
330
1F
100
AcDbEntity
  8
Buildings_Or_Structure_Text
100
AcDbMText
 10
226.96
 20
132.2
 30
0.0
 40
1.5
 71
     7
 72
     1
  1
27
 50
38.7
  0
MTEXT
  5
AAE93
330
1F
100
AcDbEntity
  8
Buildings_Or_Structure_Text
100
AcDbMText
 10
250.87
 20
134.01
 30
0.0
 40
1.5
 71
     7
 72
     1
  1
1 to 26
 50
308.1
  0
MTEXT
  5
AAE94
330
1F
100
AcDbEntity
  8
Buildings_Or_Structure_Text
100
AcDbMText
 10
248.38
 20
132.73
 30
0.0
 40
1.5
 71
     7
 72
     1
  1
36 to 41
 50
308.7
  0
MTEXT
  5
AAE95
330
1F
100
AcDbEntity
  8
Buildings_Or_Structure_Text
100
AcDbMText
 10
206.91
 20
127.13
 30
0.0
 40
1.5
 71
     7
 72
     1
  1
28 to 30
 50
39.6
  0
MTEXT
  5
AAE96
330
1F
100
AcDbEntity
  8
Buildings_Or_Structure_Text
100
AcDbMText
 10
113.61
 20
169.13
 30
0.0
 40
1.5
 71
     8
 72
     1
  1
1
 50
114.5
  0
MTEXT
  5
AAE97
330
1F
100
AcDbEntity
  8
Buildings_Or_Structure_Text
100
AcDbMText
 10
101.4
 20
156.28
 30
0.0
 40
1.5
 71
     7
 72
     1
  1
36
 50
37.3
  0
MTEXT
  5
AAE98
330
1F
100
AcDbEntity
  8
Road_Or_Track_Road_Name_Or_Classification_Text
100
AcDbMText
 10
128.46
 20
172.68
 30
0.0
 40
1.75
 71
     5
 72
     1
  1
RICHMOND ROAD
 50
40.0
  0
MTEXT
  5
AAE99
330
1F
100
AcDbEntity
  8
Buildings_Or_Structure_Text
100
AcDbMText
 10
111.96
 20
149.38
 30
0.0
 40
1.5
 71
     8
 72
     1
  1
10
 50
219.6
  0
MTEXT
  5
AAE9A
330
1F
100
AcDbEntity
  8
Buildings_Or_Structure_Text
100
AcDbMText
 10
123.16
 20
158.23
 30
0.0
 40
1.5
 71
     8
 72
     1
  1
9
 50
219.6
  0
MTEXT
  5
AAE9B
330
1F
100
AcDbEntity
  8
Buildings_Or_Structure_Text
100
AcDbMText
 10
141.76
 20
173.98
 30
0.0
 40
1.5
 71
     8
 72
     1
  1
5
 50
219.6
  0
MTEXT
  5
AAE9C
330
1F
100
AcDbEntity
  8
Buildings_Or_Structure_Text
100
AcDbMText
 10
231.26
 20
163.88
 30
0.0
 40
1.5
 71
     8
 72
     1
  1
44
 50
128.3
  0
MTEXT
  5
AAE9D
330
1F
100
AcDbEntity
  8
Buildings_Or_Structure_Text
100
AcDbMText
 10
185.83
 20
146.25
 30
0.0
 40
1.5
 71
     7
 72
     1
  1
60 to 76
 50
0.0
  0
MTEXT
  5
AAE9E
330
1F
100
AcDbEntity
  8
Roadside_Text
100
AcDbMText
 10
178.86
 20
164.34
 30
0.0
 40
1.5
 71
     7
 72
     1
  1
Posts
 50
0.0
  0
MTEXT
  5
AAE9F
330
1F
100
AcDbEntity
  8
Buildings_Or_Structure_Text
100
AcDbMText
 10
143.01
 20
134.83
 30
0.0
 40
1.5
 71
     8
 72
     1
  1
9a
 50
219.3
  0
LWPOLYLINE
  5
AAEA0
330
1F
100
AcDbEntity
  8
General_Feature_Line
100
AcDbPolyline
 90
     9
 43
0.0
 10
160.94
 20
48.68
 10
159.91
 20
48.78
 10
158.91
 20
48.83
 10
156.76
 20
48.13
 10
154.66
 20
47.53
 10
154.16
 20
47.48
 10
153.11
 20
47.78
 10
152.85
 20
48.04
 10
152.11
 20
51.18
  0
LWPOLYLINE
  5
AAEA1
330
1F
100
AcDbEntity
  8
General_Feature_Line
100
AcDbPolyline
 90
    12
 43
0.0
 10
199.06
 20
64.73
 10
190.46
 20
60.73
 10
186.21
 20
58.78
 10
183.51
 20
57.53
 10
179.56
 20
55.88
 10
176.61
 20
54.73
 10
173.31
 20
53.48
 10
169.81
 20
52.13
 10
168.71
 20
51.83
 10
165.16
 20
50.48
 10
164.06
 20
50.13
 10
160.94
 20
48.68
  0
LWPOLYLINE
  5
AAEA2
330
1F
100
AcDbEntity
  8
General_Feature_Line
100
AcDbPolyline
 90
     5
 43
0.0
 10
84.96
 20
64.33
 10
88.99
 20
68.66
 10
92.46
 20
72.38
 10
92.93
 20
72.88
 10
97.01
 20
77.23
  0
LWPOLYLINE
  5
AAEA3
330
1F
100
AcDbEntity
  8
General_Feature_Line
100
AcDbPolyline
 90
    15
 43
0.0
 10
160.94
 20
48.68
 10
159.96
 20
48.23
 10
158.16
 20
47.48
 10
157.41
 20
47.13
 10
154.36
 20
46.08
 10
151.21
 20
44.98
 10
147.11
 20
43.53
 10
144.71
 20
42.78
 10
141.46
 20
41.78
 10
139.36
 20
41.13
 10
138.31
 20
40.83
 10
136.56
 20
40.38
 10
133.96
 20
39.68
 10
131.06
 20
38.93
 10
127.81
 20
38.13
  0
LWPOLYLINE
  5
AAEA4
330
1F
100
AcDbEntity
  8
General_Feature_Line
100
AcDbPolyline
 90
     3
 43
0.0
 10
219.72
 20
35.79
 10
219.66
 20
35.51
 10
219.55
 20
34.98
  0
LWPOLYLINE
  5
AAEA5
330
1F
100
AcDbEntity
  8
General_Feature_Line
100
AcDbPolyline
 90
     2
 43
0.0
 10
223.23
 20
34.98
 10
225.07
 20
43.5
  0
LWPOLYLINE
  5
AAEA6
330
1F
100
AcDbEntity
  8
General_Feature_Line
100
AcDbPolyline
 90
     2
 43
0.0
 10
218.7
 20
35.98
 10
200.06
 20
54.29
  0
LWPOLYLINE
  5
AAEA7
330
1F
100
AcDbEntity
  8
General_Feature_Line
100
AcDbPolyline
 90
     7
 43
0.0
 10
191.13
 20
49.95
 10
186.56
 20
47.73
 10
185.46
 20
47.13
 10
184.46
 20
46.53
 10
172.46
 20
40.73
 10
163.01
 20
35.98
 10
160.94
 20
34.98
  0
LWPOLYLINE
  5
AAEA8
330
1F
100
AcDbEntity
  8
General_Feature_Line
100
AcDbPolyline
 90
     2
 43
0.0
 10
239.01
 20
41.18
 10
242.84
 20
36.7
  0
LWPOLYLINE
  5
AAEA9
330
1F
100
AcDbEntity
  8
General_Feature_Line
100
AcDbPolyline
 90
     2
 43
0.0
 10
218.7
 20
35.98
 10
219.72
 20
35.79
  0
LWPOLYLINE
  5
AAEAA
330
1F
100
AcDbEntity
  8
General_Feature_Line
100
AcDbPolyline
 90
     4
 43
0.0
 10
225.07
 20
43.5
 10
221.55
 20
44.26
 10
220.03
 20
37.22
 10
219.72
 20
35.79
  0
LWPOLYLINE
  5
AAEAB
330
1F
100
AcDbEntity
  8
Network_Or_Polygon_Closing_Geometry_Link_Polygon_Closing_Link_Line
100
AcDbPolyline
 90
     2
 43
0.0
 10
233.81
 20
41.35
 10
239.01
 20
41.18
  0
LWPOLYLINE
  5
AAEAC
330
1F
100
AcDbEntity
  8
General_Feature_Line
100
AcDbPolyline
 90
     2
 43
0.0
 10
225.07
 20
43.5
 10
233.81
 20
41.35
  0
LWPOLYLINE
  5
AAEAD
330
1F
100
AcDbEntity
  8
Building_Outline_Line
100
AcDbPolyline
 90
     2
 43
0.0
 10
79.79
 20
52.31
 10
77.36
 20
50.17
  0
LWPOLYLINE
  5
AAEAE
330
1F
100
AcDbEntity
  8
Building_Outline_Line
100
AcDbPolyline
 90
     4
 43
0.0
 10
77.36
 20
47.42
 10
78.52
 20
46.1
 10
82.32
 20
49.45
 10
79.79
 20
52.31
  0
LWPOLYLINE
  5
AAEAF
330
1F
100
AcDbEntity
  8
Building_Outline_Line
100
AcDbPolyline
 90
     5
 43
0.0
 10
209.11
 20
85.0
 10
208.1
 20
87.87
 10
207.28
 20
90.22
 10
206.47
 20
92.54
 10
205.56
 20
95.13
  0
LWPOLYLINE
  5
AAEB0
330
1F
100
AcDbEntity
  8
Building_Division_Line
100
AcDbPolyline
 90
     5
 43
0.0
 10
200.25
 20
93.36
 10
199.51
 20
93.11
 10
200.45
 20
90.44
 10
200.6
 20
90.0
 10
200.47
 20
89.94
  0
LWPOLYLINE
  5
AAEB1
330
1F
100
AcDbEntity
  8
Building_Outline_Line
100
AcDbPolyline
 90
     2
 43
0.0
 10
204.57
 20
83.41
 10
208.99
 20
84.96
  0
LWPOLYLINE
  5
AAEB2
330
1F
100
AcDbEntity
  8
Building_Outline_Line
100
AcDbPolyline
 90
     6
 43
0.0
 10
186.47
 20
83.43
 10
186.54
 20
83.52
 10
187.73
 20
84.98
 10
192.56
 20
81.05
 10
199.44
 20
89.5
 10
200.47
 20
89.94
  0
LWPOLYLINE
  5
AAEB3
330
1F
100
AcDbEntity
  8
Building_Division_Line
100
AcDbPolyline
 90
     2
 43
0.0
 10
205.56
 20
95.13
 10
200.25
 20
93.36
  0
LWPOLYLINE
  5
AAEB4
330
1F
100
AcDbEntity
  8
General_Feature_Line
100
AcDbPolyline
 90
     2
 43
0.0
 10
191.72
 20
78.91
 10
202.95
 20
82.84
  0
LWPOLYLINE
  5
AAEB5
330
1F
100
AcDbEntity
  8
Network_Or_Polygon_Closing_Geometry_Link_Polygon_Closing_Link_Line
100
AcDbPolyline
 90
     2
 43
0.0
 10
214.51
 20
88.06
 10
209.11
 20
85.0
  0
LWPOLYLINE
  5
AAEB6
330
1F
100
AcDbEntity
  8
Building_Outline_Line
100
AcDbPolyline
 90
     2
 43
0.0
 10
208.99
 20
84.96
 10
209.11
 20
85.0
  0
LWPOLYLINE
  5
AAEB7
330
1F
100
AcDbEntity
  8
Building_Outline_Line
100
AcDbPolyline
 90
     4
 43
0.0
 10
200.47
 20
89.94
 10
201.13
 20
88.04
 10
201.95
 20
85.71
 10
202.95
 20
82.84
  0
LWPOLYLINE
  5
AAEB8
330
1F
100
AcDbEntity
  8
General_Feature_Line
100
AcDbPolyline
 90
    13
 43
0.0
 10
183.21
 20
77.22
 10
183.52
 20
77.14
 10
183.84
 20
77.09
 10
184.17
 20
77.06
 10
184.71
 20
77.03
 10
185.03
 20
77.02
 10
185.36
 20
77.02
 10
185.69
 20
77.03
 10
186.01
 20
77.06
 10
186.34
 20
77.1
 10
187.29
 20
77.35
 10
190.98
 20
78.65
 10
191.72
 20
78.91
  0
LWPOLYLINE
  5
AAEB9
330
1F
100
AcDbEntity
  8
Building_Outline_Line
100
AcDbPolyline
 90
     2
 43
0.0
 10
160.72
 20
89.05
 10
160.89
 20
88.92
  0
LWPOLYLINE
  5
AAEBA
330
1F
100
AcDbEntity
  8
General_Feature_Line
100
AcDbPolyline
 90
    31
 43
0.0
 10
177.74
 20
76.31
 10
177.75
 20
76.19
 10
177.73
 20
75.93
 10
177.71
 20
75.81
 10
177.68
 20
75.7
 10
177.65
 20
75.6
 10
177.62
 20
75.5
 10
177.57
 20
75.4
 10
177.52
 20
75.3
 10
177.47
 20
75.2
 10
177.41
 20
75.11
 10
177.35
 20
75.02
 10
177.28
 20
74.93
 10
177.21
 20
74.84
 10
177.14
 20
74.76
 10
177.06
 20
74.68
 10
176.98
 20
74.6
 10
176.9
 20
74.52
 10
176.82
 20
74.44
 10
176.73
 20
74.36
 10
176.64
 20
74.29
 10
176.55
 20
74.21
 10
176.46
 20
74.14
 10
176.37
 20
74.07
 10
176.28
 20
74.0
 10
176.18
 20
73.93
 10
176.09
 20
73.86
 10
176.0
 20
73.79
 10
175.91
 20
73.72
 10
175.51
 20
73.45
 10
167.69
 20
70.59
  0
LWPOLYLINE
  5
AAEBB
330
1F
100
AcDbEntity
  8
Building_Outline_Line
100
AcDbPolyline
 90
     2
 43
0.0
 10
156.62
 20
83.98
 10
160.72
 20
89.05
  0
LWPOLYLINE
  5
AAEBC
330
1F
100
AcDbEntity
  8
Building_Outline_Line
100
AcDbPolyline
 90
     2
 43
0.0
 10
155.45
 20
84.92
 10
157.65
 20
87.64
  0
LWPOLYLINE
  5
AAEBD
330
1F
100
AcDbEntity
  8
Building_Outline_Line
100
AcDbPolyline
 90
     2
 43
0.0
 10
155.45
 20
84.92
 10
156.62
 20
83.98
  0
LWPOLYLINE
  5
AAEBE
330
1F
100
AcDbEntity
  8
Building_Outline_Line
100
AcDbPolyline
 90
     5
 43
0.0
 10
153.23
 20
79.39
 10
153.68
 20
78.11
 10
156.42
 20
79.08
 10
158.88
 20
82.15
 10
156.62
 20
83.98
  0
LWPOLYLINE
  5
AAEBF
330
1F
100
AcDbEntity
  8
General_Feature_Line
100
AcDbPolyline
 90
     2
 43
0.0
 10
167.69
 20
70.59
 10
167.47
 20
71.21
  0
LWPOLYLINE
  5
AAEC0
330
1F
100
AcDbEntity
  8
Building_Outline_Line
100
AcDbPolyline
 90
     2
 43
0.0
 10
153.9
 20
83.0
 10
155.45
 20
84.92
  0
LWPOLYLINE
  5
AAEC1
330
1F
100
AcDbEntity
  8
Building_Outline_Line
100
AcDbPolyline
 90
     4
 43
0.0
 10
159.51
 20
95.32
 10
159.6
 20
95.43
 10
159.7
 20
95.55
 10
159.52
 20
95.69
  0
LWPOLYLINE
  5
AAEC2
330
1F
100
AcDbEntity
  8
Building_Outline_Line
100
AcDbPolyline
 90
     9
 43
0.0
 10
167.71
 20
83.37
 10
173.97
 20
78.29
 10
174.56
 20
77.32
 10
174.74
 20
76.15
 10
174.48
 20
75.02
 10
173.83
 20
74.1
 10
173.11
 20
73.58
 10
167.36
 20
71.53
 10
167.47
 20
71.21
  0
LWPOLYLINE
  5
AAEC3
330
1F
100
AcDbEntity
  8
Building_Outline_Line
100
AcDbPolyline
 90
     2
 43
0.0
 10
159.56
 20
90.0
 10
157.65
 20
87.64
  0
LWPOLYLINE
  5
AAEC4
330
1F
100
AcDbEntity
  8
General_Feature_Line
100
AcDbPolyline
 90
    35
 43
0.0
 10
183.21
 20
77.22
 10
182.9
 20
77.34
 10
182.74
 20
77.42
 10
182.61
 20
77.49
 10
182.48
 20
77.58
 10
182.36
 20
77.66
 10
182.23
 20
77.75
 10
182.11
 20
77.84
 10
181.99
 20
77.93
 10
181.6
 20
78.21
 10
181.34
 20
78.46
 10
181.3
 20
78.53
 10
181.25
 20
78.6
 10
181.22
 20
78.67
 10
181.18
 20
78.74
 10
181.15
 20
78.82
 10
181.12
 20
78.89
 10
181.1
 20
78.97
 10
181.07
 20
79.04
 10
181.04
 20
79.12
 10
181.01
 20
79.2
 10
180.97
 20
79.27
 10
180.48
 20
80.16
 10
180.16
 20
80.7
 10
179.41
 20
82.07
 10
179.21
 20
82.35
 10
179.01
 20
82.6
 10
178.81
 20
82.85
 10
178.59
 20
83.08
 10
178.36
 20
83.31
 10
178.08
 20
83.47
 10
176.61
 20
84.76
 10
183.45
 20
93.23
 10
185.03
 20
93.39
 10
185.72
 20
92.84
  0
LWPOLYLINE
  5
AAEC5
330
1F
100
AcDbEntity
  8
Building_Outline_Line
100
AcDbPolyline
 90
     6
 43
0.0
 10
187.57
 20
96.59
 10
189.9
 20
94.7
 10
188.45
 20
92.93
 10
187.33
 20
91.55
 10
185.73
 20
92.85
 10
185.72
 20
92.84
  0
LWPOLYLINE
  5
AAEC6
330
1F
100
AcDbEntity
  8
Building_Outline_Line
100
AcDbPolyline
 90
     2
 43
0.0
 10
160.89
 20
88.92
 10
167.71
 20
83.37
  0
LWPOLYLINE
  5
AAEC7
330
1F
100
AcDbEntity
  8
General_Feature_Line
100
AcDbPolyline
 90
     3
 43
0.0
 10
160.89
 20
88.92
 10
162.25
 20
90.59
 10
169.07
 20
85.05
  0
LWPOLYLINE
  5
AAEC8
330
1F
100
AcDbEntity
  8
General_Feature_Line
100
AcDbPolyline
 90
     2
 43
0.0
 10
167.71
 20
83.37
 10
169.07
 20
85.05
  0
LWPOLYLINE
  5
AAEC9
330
1F
100
AcDbEntity
  8
Building_Outline_Line
100
AcDbPolyline
 90
     2
 43
0.0
 10
121.23
 20
66.54
 10
125.72
 20
68.12
  0
LWPOLYLINE
  5
AAECA
330
1F
100
AcDbEntity
  8
Building_Division_Line
100
AcDbPolyline
 90
     2
 43
0.0
 10
125.72
 20
68.12
 10
129.36
 20
57.73
  0
LWPOLYLINE
  5
AAECB
330
1F
100
AcDbEntity
  8
Building_Division_Line
100
AcDbPolyline
 90
     2
 43
0.0
 10
112.26
 20
63.4
 10
115.9
 20
53.01
  0
LWPOLYLINE
  5
AAECC
330
1F
100
AcDbEntity
  8
Building_Division_Line
100
AcDbPolyline
 90
     3
 43
0.0
 10
103.58
 20
58.92
 10
104.99
 20
54.89
 10
105.89
 20
52.34
  0
LWPOLYLINE
  5
AAECD
330
1F
100
AcDbEntity
  8
Building_Division_Line
100
AcDbPolyline
 90
     2
 43
0.0
 10
116.74
 20
64.97
 10
120.24
 20
55.01
  0
LWPOLYLINE
  5
AAECE
330
1F
100
AcDbEntity
  8
Building_Division_Line
100
AcDbPolyline
 90
     2
 43
0.0
 10
121.23
 20
66.54
 10
124.73
 20
56.59
  0
LWPOLYLINE
  5
AAECF
330
1F
100
AcDbEntity
  8
Building_Division_Line
100
AcDbPolyline
 90
     2
 43
0.0
 10
107.77
 20
61.82
 10
111.26
 20
51.86
  0
LWPOLYLINE
  5
AAED0
330
1F
100
AcDbEntity
  8
Building_Division_Line
100
AcDbPolyline
 90
     2
 43
0.0
 10
103.48
 20
51.5
 10
101.32
 20
57.65
  0
LWPOLYLINE
  5
AAED1
330
1F
100
AcDbEntity
  8
Road_Or_Track_Public_Line
100
AcDbPolyline
 90
    37
 43
0.0
 10
91.85
 20
39.89
 10
101.01
 20
40.78
 10
105.92
 20
41.55
 10
113.8
 20
43.4
 10
126.65
 20
46.76
 10
138.83
 20
50.22
 10
141.51
 20
51.4
 10
141.76
 20
51.51
 10
143.94
 20
52.93
 10
146.96
 20
55.69
 10
147.44
 20
56.04
 10
148.87
 20
51.95
 10
162.48
 20
56.72
 10
160.84
 20
61.43
 10
161.59
 20
61.69
 10
163.24
 20
56.99
 10
174.58
 20
60.97
 10
172.92
 20
65.68
 10
173.68
 20
65.95
 10
175.33
 20
61.23
 10
186.67
 20
65.21
 10
185.19
 20
69.45
 10
186.71
 20
69.51
 10
189.65
 20
69.03
 10
192.31
 20
68.8
 10
194.48
 20
68.91
 10
197.03
 20
69.37
 10
207.26
 20
72.9
 10
215.04
 20
76.5
 10
227.32
 20
80.88
 10
225.33
 20
86.55
 10
220.93
 20
85.07
 10
219.44
 20
84.96
 10
218.05
 20
85.2
 10
216.53
 20
85.89
 10
215.12
 20
87.14
 10
214.51
 20
88.06
  0
LWPOLYLINE
  5
AAED2
330
1F
100
AcDbEntity
  8
Building_Division_Line
100
AcDbPolyline
 90
     2
 43
0.0
 10
130.21
 20
69.69
 10
133.7
 20
59.73
  0
LWPOLYLINE
  5
AAED3
330
1F
100
AcDbEntity
  8
Building_Outline_Line
100
AcDbPolyline
 90
     2
 43
0.0
 10
125.72
 20
68.12
 10
130.21
 20
69.69
  0
LWPOLYLINE
  5
AAED4
330
1F
100
AcDbEntity
  8
Building_Outline_Line
100
AcDbPolyline
 90
     2
 43
0.0
 10
138.05
 20
61.26
 10
133.7
 20
59.73
  0
LWPOLYLINE
  5
AAED5
330
1F
100
AcDbEntity
  8
Building_Outline_Line
100
AcDbPolyline
 90
     2
 43
0.0
 10
130.21
 20
69.69
 10
134.56
 20
71.22
  0
LWPOLYLINE
  5
AAED6
330
1F
100
AcDbEntity
  8
Building_Outline_Line
100
AcDbPolyline
 90
     2
 43
0.0
 10
116.74
 20
64.97
 10
121.23
 20
66.54
  0
LWPOLYLINE
  5
AAED7
330
1F
100
AcDbEntity
  8
Building_Outline_Line
100
AcDbPolyline
 90
     4
 43
0.0
 10
129.36
 20
57.73
 10
126.34
 20
56.68
 10
126.19
 20
57.1
 10
124.73
 20
56.59
  0
LWPOLYLINE
  5
AAED8
330
1F
100
AcDbEntity
  8
Building_Outline_Line
100
AcDbPolyline
 90
     2
 43
0.0
 10
124.73
 20
56.59
 10
120.24
 20
55.01
  0
LWPOLYLINE
  5
AAED9
330
1F
100
AcDbEntity
  8
Building_Outline_Line
100
AcDbPolyline
 90
     2
 43
0.0
 10
112.26
 20
63.4
 10
116.74
 20
64.97
  0
LWPOLYLINE
  5
AAEDA
330
1F
100
AcDbEntity
  8
Building_Outline_Line
100
AcDbPolyline
 90
     4
 43
0.0
 10
115.9
 20
53.01
 10
112.88
 20
51.96
 10
112.73
 20
52.38
 10
111.26
 20
51.86
  0
LWPOLYLINE
  5
AAEDB
330
1F
100
AcDbEntity
  8
Building_Outline_Line
100
AcDbPolyline
 90
     2
 43
0.0
 10
107.77
 20
61.82
 10
112.26
 20
63.4
  0
LWPOLYLINE
  5
AAEDC
330
1F
100
AcDbEntity
  8
Building_Outline_Line
100
AcDbPolyline
 90
     2
 43
0.0
 10
103.14
 20
60.2
 10
107.77
 20
61.82
  0
LWPOLYLINE
  5
AAEDD
330
1F
100
AcDbEntity
  8
Building_Outline_Line
100
AcDbPolyline
 90
     2
 43
0.0
 10
101.17
 20
58.08
 10
103.58
 20
58.92
  0
LWPOLYLINE
  5
AAEDE
330
1F
100
AcDbEntity
  8
Building_Outline_Line
100
AcDbPolyline
 90
     2
 43
0.0
 10
106.63
 20
50.24
 10
105.89
 20
52.34
  0
LWPOLYLINE
  5
AAEDF
330
1F
100
AcDbEntity
  8
General_Feature_Line
100
AcDbPolyline
 90
     5
 43
0.0
 10
129.92
 20
94.57
 10
129.55
 20
93.33
 10
131.26
 20
88.6
 10
132.37
 20
88.86
 10
134.19
 20
91.12
  0
LWPOLYLINE
  5
AAEE0
330
1F
100
AcDbEntity
  8
Building_Outline_Line
100
AcDbPolyline
 90
     2
 43
0.0
 10
129.92
 20
94.57
 10
134.19
 20
91.12
  0
LWPOLYLINE
  5
AAEE1
330
1F
100
AcDbEntity
  8
Building_Outline_Line
100
AcDbPolyline
 90
     2
 43
0.0
 10
160.72
 20
89.05
 10
159.56
 20
90.0
  0
LWPOLYLINE
  5
AAEE2
330
1F
100
AcDbEntity
  8
General_Feature_Line
100
AcDbPolyline
 90
     2
 43
0.0
 10
159.51
 20
95.32
 10
160.6
 20
94.44
  0
LWPOLYLINE
  5
AAEE3
330
1F
100
AcDbEntity
  8
Building_Outline_Line
100
AcDbPolyline
 90
     4
 43
0.0
 10
157.65
 20
87.64
 10
157.31
 20
87.92
 10
155.02
 20
89.76
 10
159.51
 20
95.32
  0
LWPOLYLINE
  5
AAEE4
330
1F
100
AcDbEntity
  8
General_Feature_Line
100
AcDbPolyline
 90
     3
 43
0.0
 10
159.56
 20
90.0
 10
160.94
 20
91.71
 10
160.6
 20
94.44
  0
LWPOLYLINE
  5
AAEE5
330
1F
100
AcDbEntity
  8
General_Feature_Line
100
AcDbPolyline
 90
     3
 43
0.0
 10
143.72
 20
86.15
 10
143.71
 20
86.16
 10
137.06
 20
91.54
  0
LWPOLYLINE
  5
AAEE6
330
1F
100
AcDbEntity
  8
Building_Outline_Line
100
AcDbPolyline
 90
     3
 43
0.0
 10
138.51
 20
93.33
 10
138.65
 20
93.21
 10
145.16
 20
87.95
  0
LWPOLYLINE
  5
AAEE7
330
1F
100
AcDbEntity
  8
Building_Outline_Line
100
AcDbPolyline
 90
     3
 43
0.0
 10
145.16
 20
87.95
 10
146.19
 20
89.24
 10
153.9
 20
83.0
  0
LWPOLYLINE
  5
AAEE8
330
1F
100
AcDbEntity
  8
General_Feature_Line
100
AcDbPolyline
 90
     2
 43
0.0
 10
145.16
 20
87.95
 10
143.72
 20
86.15
  0
LWPOLYLINE
  5
AAEE9
330
1F
100
AcDbEntity
  8
General_Feature_Line
100
AcDbPolyline
 90
     2
 43
0.0
 10
149.01
 20
81.87
 10
143.72
 20
86.15
  0
LWPOLYLINE
  5
AAEEA
330
1F
100
AcDbEntity
  8
General_Feature_Line
100
AcDbPolyline
 90
     2
 43
0.0
 10
227.39
 20
86.66
 10
228.46
 20
83.58
  0
LWPOLYLINE
  5
AAEEB
330
1F
100
AcDbEntity
  8
General_Feature_Line
100
AcDbPolyline
 90
     2
 43
0.0
 10
224.76
 20
91.43
 10
227.39
 20
86.66
  0
LWPOLYLINE
  5
AAEEC
330
1F
100
AcDbEntity
  8
Building_Division_Line
100
AcDbPolyline
 90
     2
 43
0.0
 10
138.05
 20
61.26
 10
134.56
 20
71.22
  0
LWPOLYLINE
  5
AAEED
330
1F
100
AcDbEntity
  8
Building_Outline_Line
100
AcDbPolyline
 90
     2
 43
0.0
 10
138.24
 20
60.72
 10
138.05
 20
61.26
  0
LWPOLYLINE
  5
AAEEE
330
1F
100
AcDbEntity
  8
Building_Outline_Line
100
AcDbPolyline
 90
     6
 43
0.0
 10
134.19
 20
91.12
 10
134.32
 20
91.01
 10
134.66
 20
90.74
 10
137.32
 20
94.02
 10
137.45
 20
94.18
 10
138.51
 20
93.33
  0
LWPOLYLINE
  5
AAEEF
330
1F
100
AcDbEntity
  8
General_Feature_Line
100
AcDbPolyline
 90
     2
 43
0.0
 10
137.06
 20
91.54
 10
138.51
 20
93.33
  0
LWPOLYLINE
  5
AAEF0
330
1F
100
AcDbEntity
  8
Building_Outline_Line
100
AcDbPolyline
 90
     2
 43
0.0
 10
103.72
 20
51.58
 10
103.48
 20
51.5
  0
LWPOLYLINE
  5
AAEF1
330
1F
100
AcDbEntity
  8
Building_Outline_Line
100
AcDbPolyline
 90
     3
 43
0.0
 10
97.83
 20
56.42
 10
101.18
 20
57.6
 10
101.32
 20
57.65
  0
LWPOLYLINE
  5
AAEF2
330
1F
100
AcDbEntity
  8
Building_Outline_Line
100
AcDbPolyline
 90
     2
 43
0.0
 10
101.17
 20
58.08
 10
101.32
 20
57.65
  0
LWPOLYLINE
  5
AAEF3
330
1F
100
AcDbEntity
  8
Building_Outline_Line
100
AcDbPolyline
 90
     4
 43
0.0
 10
120.24
 20
55.01
 10
118.77
 20
54.5
 10
118.92
 20
54.07
 10
115.9
 20
53.01
  0
LWPOLYLINE
  5
AAEF4
330
1F
100
AcDbEntity
  8
Building_Outline_Line
100
AcDbPolyline
 90
     4
 43
0.0
 10
133.7
 20
59.73
 10
132.23
 20
59.22
 10
132.38
 20
58.79
 10
129.36
 20
57.73
  0
LWPOLYLINE
  5
AAEF5
330
1F
100
AcDbEntity
  8
Network_Or_Polygon_Closing_Geometry_Link_Polygon_Closing_Link_Line
100
AcDbPolyline
 90
     2
 43
0.0
 10
177.74
 20
76.31
 10
183.21
 20
77.22
  0
LWPOLYLINE
  5
AAEF6
330
1F
100
AcDbEntity
  8
General_Feature_Line
100
AcDbPolyline
 90
    19
 43
0.0
 10
169.07
 20
85.05
 10
175.33
 20
79.96
 10
175.61
 20
79.73
 10
175.81
 20
79.55
 10
175.99
 20
79.37
 10
176.17
 20
79.18
 10
176.34
 20
78.98
 10
176.51
 20
78.78
 10
176.66
 20
78.57
 10
176.81
 20
78.35
 10
176.97
 20
78.09
 10
177.12
 20
77.87
 10
177.26
 20
77.64
 10
177.38
 20
77.41
 10
177.5
 20
77.17
 10
177.6
 20
76.93
 10
177.68
 20
76.69
 10
177.73
 20
76.44
 10
177.74
 20
76.31
  0
LWPOLYLINE
  5
AAEF7
330
1F
100
AcDbEntity
  8
General_Feature_Line
100
AcDbPolyline
 90
     2
 43
0.0
 10
123.21
 20
75.27
 10
125.72
 20
68.12
  0
LWPOLYLINE
  5
AAEF8
330
1F
100
AcDbEntity
  8
General_Feature_Line
100
AcDbPolyline
 90
     9
 43
0.0
 10
105.62
 20
69.57
 10
105.72
 20
69.61
 10
106.01
 20
69.88
 10
106.95
 20
70.56
 10
110.98
 20
72.05
 10
129.13
 20
78.41
 10
128.46
 20
80.33
 10
133.0
 20
81.92
 10
128.8
 20
93.9
  0
LWPOLYLINE
  5
AAEF9
330
1F
100
AcDbEntity
  8
General_Feature_Line
100
AcDbPolyline
 90
     2
 43
0.0
 10
118.72
 20
73.7
 10
121.23
 20
66.54
  0
LWPOLYLINE
  5
AAEFA
330
1F
100
AcDbEntity
  8
General_Feature_Line
100
AcDbPolyline
 90
     2
 43
0.0
 10
105.45
 20
68.39
 10
107.77
 20
61.82
  0
LWPOLYLINE
  5
AAEFB
330
1F
100
AcDbEntity
  8
General_Feature_Line
100
AcDbPolyline
 90
     2
 43
0.0
 10
114.24
 20
72.13
 10
116.74
 20
64.97
  0
LWPOLYLINE
  5
AAEFC
330
1F
100
AcDbEntity
  8
General_Feature_Line
100
AcDbPolyline
 90
     2
 43
0.0
 10
103.02
 20
60.53
 10
103.14
 20
60.2
  0
LWPOLYLINE
  5
AAEFD
330
1F
100
AcDbEntity
  8
General_Feature_Line
100
AcDbPolyline
 90
     2
 43
0.0
 10
109.77
 20
70.56
 10
112.26
 20
63.4
  0
LWPOLYLINE
  5
AAEFE
330
1F
100
AcDbEntity
  8
General_Feature_Line
100
AcDbPolyline
 90
     4
 43
0.0
 10
103.02
 20
60.53
 10
103.3
 20
60.63
 10
102.52
 20
62.85
 10
99.69
 20
61.86
  0
LWPOLYLINE
  5
AAEFF
330
1F
100
AcDbEntity
  8
Building_Outline_Line
100
AcDbPolyline
 90
     2
 43
0.0
 10
78.76
 20
123.6
 10
79.03
 20
123.26
  0
LWPOLYLINE
  5
AAF00
330
1F
100
AcDbEntity
  8
General_Feature_Line
100
AcDbPolyline
 90
     2
 43
0.0
 10
77.94
 20
124.55
 10
78.76
 20
123.6
  0
LWPOLYLINE
  5
AAF01
330
1F
100
AcDbEntity
  8
Building_Outline_Line
100
AcDbPolyline
 90
     8
 43
0.0
 10
90.39
 20
119.05
 10
92.51
 20
120.93
 10
94.71
 20
118.28
 10
96.86
 20
120.13
 10
94.61
 20
122.73
 10
96.56
 20
124.33
 10
98.91
 20
121.58
 10
101.36
 20
123.66
  0
LWPOLYLINE
  5
AAF02
330
1F
100
AcDbEntity
  8
General_Feature_Line
100
AcDbPolyline
 90
     2
 43
0.0
 10
101.36
 20
123.66
 10
99.12
 20
126.24
  0
LWPOLYLINE
  5
AAF03
330
1F
100
AcDbEntity
  8
General_Feature_Line
100
AcDbPolyline
 90
     2
 43
0.0
 10
118.31
 20
112.33
 10
103.33
 20
129.55
  0
LWPOLYLINE
  5
AAF04
330
1F
100
AcDbEntity
  8
General_Feature_Line
100
AcDbPolyline
 90
     2
 43
0.0
 10
123.78
 20
114.58
 10
128.09
 20
118.33
  0
LWPOLYLINE
  5
AAF05
330
1F
100
AcDbEntity
  8
Building_Division_Line
100
AcDbPolyline
 90
     2
 43
0.0
 10
212.34
 20
119.52
 10
218.72
 20
124.68
  0
LWPOLYLINE
  5
AAF06
330
1F
100
AcDbEntity
  8
Building_Outline_Line
100
AcDbPolyline
 90
     2
 43
0.0
 10
215.42
 20
115.69
 10
212.34
 20
119.52
  0
LWPOLYLINE
  5
AAF07
330
1F
100
AcDbEntity
  8
Building_Division_Line
100
AcDbPolyline
 90
     2
 43
0.0
 10
221.81
 20
120.82
 10
215.42
 20
115.69
  0
LWPOLYLINE
  5
AAF08
330
1F
100
AcDbEntity
  8
Building_Outline_Line
100
AcDbPolyline
 90
     2
 43
0.0
 10
218.72
 20
124.68
 10
221.81
 20
120.82
  0
LWPOLYLINE
  5
AAF09
330
1F
100
AcDbEntity
  8
Building_Outline_Line
100
AcDbPolyline
 90
     2
 43
0.0
 10
221.81
 20
120.82
 10
225.04
 20
116.8
  0
LWPOLYLINE
  5
AAF0A
330
1F
100
AcDbEntity
  8
Building_Outline_Line
100
AcDbPolyline
 90
     2
 43
0.0
 10
222.31
 20
127.56
 10
218.72
 20
124.68
  0
LWPOLYLINE
  5
AAF0B
330
1F
100
AcDbEntity
  8
Building_Outline_Line
100
AcDbPolyline
 90
     2
 43
0.0
 10
223.1
 20
128.18
 10
222.31
 20
127.56
  0
LWPOLYLINE
  5
AAF0C
330
1F
100
AcDbEntity
  8
Building_Outline_Line
100
AcDbPolyline
 90
     3
 43
0.0
 10
230.66
 20
133.56
 10
226.57
 20
130.34
 10
226.3
 20
130.69
  0
LWPOLYLINE
  5
AAF0D
330
1F
100
AcDbEntity
  8
Building_Outline_Line
100
AcDbPolyline
 90
     2
 43
0.0
 10
218.98
 20
133.94
 10
217.89
 20
133.06
  0
LWPOLYLINE
  5
AAF0E
330
1F
100
AcDbEntity
  8
Building_Outline_Line
100
AcDbPolyline
 90
     2
 43
0.0
 10
226.3
 20
130.69
 10
221.9
 20
136.28
  0
LWPOLYLINE
  5
AAF0F
330
1F
100
AcDbEntity
  8
Building_Outline_Line
100
AcDbPolyline
 90
     2
 43
0.0
 10
214.48
 20
137.31
 10
217.89
 20
133.06
  0
LWPOLYLINE
  5
AAF10
330
1F
100
AcDbEntity
  8
Building_Outline_Line
100
AcDbPolyline
 90
     2
 43
0.0
 10
241.44
 20
153.92
 10
242.34
 20
154.63
  0
LWPOLYLINE
  5
AAF11
330
1F
100
AcDbEntity
  8
General_Feature_Line
100
AcDbPolyline
 90
     3
 43
0.0
 10
209.58
 20
150.81
 10
216.12
 20
143.08
 10
216.63
 20
142.48
  0
LWPOLYLINE
  5
AAF12
330
1F
100
AcDbEntity
  8
General_Feature_Line
100
AcDbPolyline
 90
     2
 43
0.0
 10
233.86
 20
158.7
 10
236.13
 20
160.52
  0
LWPOLYLINE
  5
AAF13
330
1F
100
AcDbEntity
  8
General_Surface_Step_Line
100
AcDbPolyline
 90
     2
 43
0.0
 10
234.64
 20
159.32
 10
233.89
 20
160.25
  0
LWPOLYLINE
  5
AAF14
330
1F
100
AcDbEntity
  8
General_Surface_Step_Line
100
AcDbPolyline
 90
     2
 43
0.0
 10
232.15
 20
157.32
 10
233.26
 20
155.97
  0
LWPOLYLINE
  5
AAF15
330
1F
100
AcDbEntity
  8
General_Feature_Line
100
AcDbPolyline
 90
     3
 43
0.0
 10
233.26
 20
155.97
 10
234.96
 20
157.34
 10
233.86
 20
158.7
  0
LWPOLYLINE
  5
AAF16
330
1F
100
AcDbEntity
  8
General_Surface_Step_Line
100
AcDbPolyline
 90
     2
 43
0.0
 10
229.18
 20
152.68
 10
228.08
 20
154.04
  0
LWPOLYLINE
  5
AAF17
330
1F
100
AcDbEntity
  8
General_Surface_Step_Line
100
AcDbPolyline
 90
     2
 43
0.0
 10
226.73
 20
150.71
 10
225.63
 20
152.07
  0
LWPOLYLINE
  5
AAF18
330
1F
100
AcDbEntity
  8
General_Surface_Step_Line
100
AcDbPolyline
 90
     2
 43
0.0
 10
229.99
 20
153.34
 10
228.9
 20
154.7
  0
LWPOLYLINE
  5
AAF19
330
1F
100
AcDbEntity
  8
Building_Outline_Line
100
AcDbPolyline
 90
     2
 43
0.0
 10
235.11
 20
161.78
 10
231.95
 20
159.3
  0
LWPOLYLINE
  5
AAF1A
330
1F
100
AcDbEntity
  8
General_Surface_Step_Line
100
AcDbPolyline
 90
     2
 43
0.0
 10
233.86
 20
158.7
 10
233.11
 20
159.63
  0
LWPOLYLINE
  5
AAF1B
330
1F
100
AcDbEntity
  8
General_Feature_Line
100
AcDbPolyline
 90
     2
 43
0.0
 10
228.48
 20
152.12
 10
233.26
 20
155.97
  0
LWPOLYLINE
  5
AAF1C
330
1F
100
AcDbEntity
  8
Building_Outline_Line
100
AcDbPolyline
 90
     4
 43
0.0
 10
241.44
 20
153.92
 10
233.76
 20
147.89
 10
234.03
 20
147.54
 10
232.15
 20
146.06
  0
LWPOLYLINE
  5
AAF1D
330
1F
100
AcDbEntity
  8
General_Feature_Line
100
AcDbPolyline
 90
     3
 43
0.0
 10
217.19
 20
142.92
 10
217.39
 20
143.08
 10
220.98
 20
145.9
  0
LWPOLYLINE
  5
AAF1E
330
1F
100
AcDbEntity
  8
General_Feature_Line
100
AcDbPolyline
 90
     3
 43
0.0
 10
226.65
 20
150.33
 10
228.64
 20
151.92
 10
228.48
 20
152.12
  0
LWPOLYLINE
  5
AAF1F
330
1F
100
AcDbEntity
  8
General_Feature_Line
100
AcDbPolyline
 90
     3
 43
0.0
 10
232.15
 20
157.32
 10
231.39
 20
158.25
 10
231.09
 20
158.62
  0
LWPOLYLINE
  5
AAF20
330
1F
100
AcDbEntity
  8
General_Surface_Step_Line
100
AcDbPolyline
 90
     2
 43
0.0
 10
232.44
 20
155.31
 10
231.35
 20
156.67
  0
LWPOLYLINE
  5
AAF21
330
1F
100
AcDbEntity
  8
General_Surface_Step_Line
100
AcDbPolyline
 90
     2
 43
0.0
 10
236.19
 20
160.57
 10
235.44
 20
161.5
  0
LWPOLYLINE
  5
AAF22
330
1F
100
AcDbEntity
  8
General_Feature_Line
100
AcDbPolyline
 90
     2
 43
0.0
 10
241.44
 20
153.92
 10
236.13
 20
160.52
  0
LWPOLYLINE
  5
AAF23
330
1F
100
AcDbEntity
  8
Building_Outline_Line
100
AcDbPolyline
 90
     2
 43
0.0
 10
231.95
 20
159.3
 10
231.09
 20
158.62
  0
LWPOLYLINE
  5
AAF24
330
1F
100
AcDbEntity
  8
General_Feature_Line
100
AcDbPolyline
 90
     3
 43
0.0
 10
233.11
 20
159.63
 10
235.44
 20
161.5
 10
236.22
 20
162.13
  0
LWPOLYLINE
  5
AAF25
330
1F
100
AcDbEntity
  8
General_Feature_Line
100
AcDbPolyline
 90
     2
 43
0.0
 10
228.48
 20
152.12
 10
226.73
 20
150.71
  0
LWPOLYLINE
  5
AAF26
330
1F
100
AcDbEntity
  8
General_Feature_Line
100
AcDbPolyline
 90
     3
 43
0.0
 10
220.98
 20
145.9
 10
225.06
 20
149.1
 10
226.65
 20
150.33
  0
LWPOLYLINE
  5
AAF27
330
1F
100
AcDbEntity
  8
General_Feature_Line
100
AcDbPolyline
 90
     3
 43
0.0
 10
225.15
 20
140.56
 10
223.18
 20
143.08
 10
220.98
 20
145.9
  0
LWPOLYLINE
  5
AAF28
330
1F
100
AcDbEntity
  8
General_Feature_Line
100
AcDbPolyline
 90
     3
 43
0.0
 10
231.95
 20
159.3
 10
232.24
 20
158.94
 10
233.11
 20
159.63
  0
LWPOLYLINE
  5
AAF29
330
1F
100
AcDbEntity
  8
General_Surface_Step_Line
100
AcDbPolyline
 90
     2
 43
0.0
 10
230.81
 20
154.0
 10
229.71
 20
155.36
  0
LWPOLYLINE
  5
AAF2A
330
1F
100
AcDbEntity
  8
General_Surface_Step_Line
100
AcDbPolyline
 90
     2
 43
0.0
 10
231.63
 20
154.66
 10
230.53
 20
156.02
  0
LWPOLYLINE
  5
AAF2B
330
1F
100
AcDbEntity
  8
General_Surface_Step_Line
100
AcDbPolyline
 90
     2
 43
0.0
 10
235.41
 20
159.94
 10
234.66
 20
160.88
  0
LWPOLYLINE
  5
AAF2C
330
1F
100
AcDbEntity
  8
General_Feature_Line
100
AcDbPolyline
 90
     4
 43
0.0
 10
226.65
 20
150.33
 10
227.73
 20
148.95
 10
229.07
 20
150.0
 10
232.15
 20
146.06
  0
LWPOLYLINE
  5
AAF2D
330
1F
100
AcDbEntity
  8
General_Surface_Step_Line
100
AcDbPolyline
 90
     2
 43
0.0
 10
227.55
 20
151.37
 10
226.45
 20
152.73
  0
LWPOLYLINE
  5
AAF2E
330
1F
100
AcDbEntity
  8
General_Surface_Step_Line
100
AcDbPolyline
 90
     2
 43
0.0
 10
228.36
 20
152.03
 10
227.27
 20
153.39
  0
LWPOLYLINE
  5
AAF2F
330
1F
100
AcDbEntity
  8
General_Feature_Line
100
AcDbPolyline
 90
     3
 43
0.0
 10
225.63
 20
152.07
 10
227.38
 20
153.48
 10
232.15
 20
157.32
  0
LWPOLYLINE
  5
AAF30
330
1F
100
AcDbEntity
  8
General_Feature_Line
100
AcDbPolyline
 90
     2
 43
0.0
 10
236.96
 20
161.19
 10
236.22
 20
162.13
  0
LWPOLYLINE
  5
AAF31
330
1F
100
AcDbEntity
  8
Building_Outline_Line
100
AcDbPolyline
 90
     3
 43
0.0
 10
234.56
 20
128.61
 10
231.54
 20
132.44
 10
230.66
 20
133.56
  0
LWPOLYLINE
  5
AAF32
330
1F
100
AcDbEntity
  8
Building_Division_Line
100
AcDbPolyline
 90
     2
 43
0.0
 10
230.66
 20
133.56
 10
225.72
 20
139.83
  0
LWPOLYLINE
  5
AAF33
330
1F
100
AcDbEntity
  8
General_Feature_Line
100
AcDbPolyline
 90
     2
 43
0.0
 10
221.94
 20
136.87
 10
217.19
 20
142.92
  0
LWPOLYLINE
  5
AAF34
330
1F
100
AcDbEntity
  8
General_Feature_Line
100
AcDbPolyline
 90
    14
 43
0.0
 10
225.35
 20
129.94
 10
226.5
 20
128.47
 10
227.45
 20
129.22
 10
230.28
 20
131.44
 10
233.3
 20
127.61
 10
240.86
 20
118.02
 10
237.05
 20
115.01
 10
235.25
 20
110.27
 10
232.01
 20
112.26
 10
227.07
 20
118.42
 10
221.63
 20
125.19
 10
223.2
 20
126.45
 10
223.98
 20
127.08
 10
223.1
 20
128.18
  0
LWPOLYLINE
  5
AAF35
330
1F
100
AcDbEntity
  8
Building_Outline_Line
100
AcDbPolyline
 90
     3
 43
0.0
 10
207.84
 20
124.47
 10
204.17
 20
129.04
 10
206.92
 20
131.24
  0
LWPOLYLINE
  5
AAF36
330
1F
100
AcDbEntity
  8
Building_Outline_Line
100
AcDbPolyline
 90
     3
 43
0.0
 10
260.36
 20
113.48
 10
242.93
 20
135.39
 10
242.25
 20
134.84
  0
LWPOLYLINE
  5
AAF37
330
1F
100
AcDbEntity
  8
General_Feature_Line
100
AcDbPolyline
 90
     2
 43
0.0
 10
214.48
 20
137.31
 10
212.27
 20
140.06
  0
LWPOLYLINE
  5
AAF38
330
1F
100
AcDbEntity
  8
Building_Outline_Line
100
AcDbPolyline
 90
     2
 43
0.0
 10
225.72
 20
139.83
 10
225.15
 20
140.56
  0
LWPOLYLINE
  5
AAF39
330
1F
100
AcDbEntity
  8
Building_Outline_Line
100
AcDbPolyline
 90
     2
 43
0.0
 10
242.25
 20
134.84
 10
240.97
 20
133.8
  0
LWPOLYLINE
  5
AAF3A
330
1F
100
AcDbEntity
  8
Building_Outline_Line
100
AcDbPolyline
 90
     2
 43
0.0
 10
211.47
 20
119.95
 10
207.84
 20
124.47
  0
LWPOLYLINE
  5
AAF3B
330
1F
100
AcDbEntity
  8
Building_Outline_Line
100
AcDbPolyline
 90
     2
 43
0.0
 10
221.28
 20
135.78
 10
218.98
 20
133.94
  0
LWPOLYLINE
  5
AAF3C
330
1F
100
AcDbEntity
  8
Building_Outline_Line
100
AcDbPolyline
 90
     2
 43
0.0
 10
225.35
 20
129.94
 10
223.1
 20
128.18
  0
LWPOLYLINE
  5
AAF3D
330
1F
100
AcDbEntity
  8
Building_Outline_Line
100
AcDbPolyline
 90
     3
 43
0.0
 10
221.9
 20
136.28
 10
221.63
 20
136.62
 10
221.94
 20
136.87
  0
LWPOLYLINE
  5
AAF3E
330
1F
100
AcDbEntity
  8
Building_Outline_Line
100
AcDbPolyline
 90
     2
 43
0.0
 10
221.9
 20
136.28
 10
221.28
 20
135.78
  0
LWPOLYLINE
  5
AAF3F
330
1F
100
AcDbEntity
  8
General_Feature_Line
100
AcDbPolyline
 90
     2
 43
0.0
 10
216.63
 20
142.48
 10
217.19
 20
142.92
  0
LWPOLYLINE
  5
AAF40
330
1F
100
AcDbEntity
  8
General_Feature_Line
100
AcDbPolyline
 90
     2
 43
0.0
 10
200.62
 20
118.68
 10
203.85
 20
113.82
  0
LWPOLYLINE
  5
AAF41
330
1F
100
AcDbEntity
  8
General_Feature_Line
100
AcDbPolyline
 90
     2
 43
0.0
 10
207.84
 20
124.47
 10
200.62
 20
118.68
  0
LWPOLYLINE
  5
AAF42
330
1F
100
AcDbEntity
  8
General_Feature_Line
100
AcDbPolyline
 90
     2
 43
0.0
 10
204.7
 20
134.02
 10
207.99
 20
136.64
  0
LWPOLYLINE
  5
AAF43
330
1F
100
AcDbEntity
  8
General_Feature_Line
100
AcDbPolyline
 90
     4
 43
0.0
 10
221.28
 20
135.78
 10
220.66
 20
136.88
 10
216.4
 20
142.3
 10
216.63
 20
142.48
  0
LWPOLYLINE
  5
AAF44
330
1F
100
AcDbEntity
  8
Building_Outline_Line
100
AcDbPolyline
 90
     3
 43
0.0
 10
212.34
 20
119.52
 10
212.02
 20
119.26
 10
211.47
 20
119.95
  0
LWPOLYLINE
  5
AAF45
330
1F
100
AcDbEntity
  8
Building_Outline_Line
100
AcDbPolyline
 90
     2
 43
0.0
 10
217.89
 20
133.06
 10
222.31
 20
127.56
  0
LWPOLYLINE
  5
AAF46
330
1F
100
AcDbEntity
  8
Building_Outline_Line
100
AcDbPolyline
 90
     2
 43
0.0
 10
226.3
 20
130.69
 10
225.35
 20
129.94
  0
LWPOLYLINE
  5
AAF47
330
1F
100
AcDbEntity
  8
General_Feature_Line
100
AcDbPolyline
 90
    12
 43
0.0
 10
253.12
 20
102.25
 10
250.89
 20
105.93
 10
250.92
 20
105.95
 10
259.58
 20
112.86
 10
258.61
 20
114.07
 10
253.22
 20
109.77
 10
251.67
 20
111.73
 10
247.68
 20
111.98
 10
237.09
 20
125.49
 10
243.77
 20
130.9
 10
243.92
 20
132.77
 10
242.25
 20
134.84
  0
LWPOLYLINE
  5
AAF48
330
1F
100
AcDbEntity
  8
General_Feature_Line
100
AcDbPolyline
 90
     2
 43
0.0
 10
195.37
 20
126.58
 10
200.62
 20
118.68
  0
LWPOLYLINE
  5
AAF49
330
1F
100
AcDbEntity
  8
General_Feature_Line
100
AcDbPolyline
 90
     2
 43
0.0
 10
203.85
 20
113.82
 10
211.47
 20
119.95
  0
LWPOLYLINE
  5
AAF4A
330
1F
100
AcDbEntity
  8
General_Feature_Line
100
AcDbPolyline
 90
     5
 43
0.0
 10
218.98
 20
133.94
 10
218.52
 20
134.67
 10
215.65
 20
138.25
 10
213.45
 20
141.0
 10
212.27
 20
140.06
  0
LWPOLYLINE
  5
AAF4B
330
1F
100
AcDbEntity
  8
General_Feature_Line
100
AcDbPolyline
 90
     2
 43
0.0
 10
206.92
 20
131.24
 10
204.7
 20
134.02
  0
LWPOLYLINE
  5
AAF4C
330
1F
100
AcDbEntity
  8
General_Feature_Line
100
AcDbPolyline
 90
     2
 43
0.0
 10
212.27
 20
140.06
 10
207.99
 20
136.64
  0
LWPOLYLINE
  5
AAF4D
330
1F
100
AcDbEntity
  8
Building_Outline_Line
100
AcDbPolyline
 90
     2
 43
0.0
 10
240.97
 20
133.8
 10
234.56
 20
128.61
  0
LWPOLYLINE
  5
AAF4E
330
1F
100
AcDbEntity
  8
General_Feature_Line
100
AcDbPolyline
 90
     5
 43
0.0
 10
234.56
 20
128.61
 10
235.94
 20
126.9
 10
241.84
 20
131.68
 10
241.94
 20
132.6
 10
240.97
 20
133.8
  0
LWPOLYLINE
  5
AAF4F
330
1F
100
AcDbEntity
  8
Building_Outline_Line
100
AcDbPolyline
 90
     4
 43
0.0
 10
210.38
 20
133.64
 10
211.92
 20
134.87
 10
211.73
 20
135.11
 10
214.48
 20
137.31
  0
LWPOLYLINE
  5
AAF50
330
1F
100
AcDbEntity
  8
General_Feature_Line
100
AcDbPolyline
 90
     2
 43
0.0
 10
207.99
 20
136.64
 10
210.38
 20
133.64
  0
LWPOLYLINE
  5
AAF51
330
1F
100
AcDbEntity
  8
Building_Outline_Line
100
AcDbPolyline
 90
     3
 43
0.0
 10
206.92
 20
131.24
 10
207.1
 20
131.01
 10
210.38
 20
133.64
  0
LWPOLYLINE
  5
AAF52
330
1F
100
AcDbEntity
  8
Building_Outline_Line
100
AcDbPolyline
 90
     2
 43
0.0
 10
221.94
 20
136.87
 10
225.72
 20
139.83
  0
LWPOLYLINE
  5
AAF53
330
1F
100
AcDbEntity
  8
Building_Division_Line
100
AcDbPolyline
 90
     3
 43
0.0
 10
180.18
 20
157.6
 10
184.92
 20
153.78
 10
182.35
 20
150.6
  0
LWPOLYLINE
  5
AAF54
330
1F
100
AcDbEntity
  8
Building_Outline_Line
100
AcDbPolyline
 90
     3
 43
0.0
 10
182.35
 20
150.6
 10
184.1
 20
149.18
 10
183.74
 20
148.74
  0
LWPOLYLINE
  5
AAF55
330
1F
100
AcDbEntity
  8
Building_Outline_Line
100
AcDbPolyline
 90
     3
 43
0.0
 10
180.18
 20
157.6
 10
177.61
 20
154.42
 10
182.35
 20
150.6
  0
LWPOLYLINE
  5
AAF56
330
1F
100
AcDbEntity
  8
Building_Outline_Line
100
AcDbPolyline
 90
     6
 43
0.0
 10
183.11
 20
128.8
 10
188.15
 20
135.04
 10
189.29
 20
134.11
 10
196.48
 20
143.01
 10
196.53
 20
143.08
 10
200.26
 20
147.69
  0
LWPOLYLINE
  5
AAF57
330
1F
100
AcDbEntity
  8
Building_Outline_Line
100
AcDbPolyline
 90
     4
 43
0.0
 10
176.55
 20
139.84
 10
178.6
 20
142.37
 10
179.17
 20
143.08
 10
180.72
 20
145.0
  0
LWPOLYLINE
  5
AAF58
330
1F
100
AcDbEntity
  8
Building_Outline_Line
100
AcDbPolyline
 90
     4
 43
0.0
 10
177.29
 20
133.54
 10
178.85
 20
135.47
 10
178.77
 20
135.53
 10
175.32
 20
138.32
  0
LWPOLYLINE
  5
AAF59
330
1F
100
AcDbEntity
  8
Building_Division_Line
100
AcDbPolyline
 90
     2
 43
0.0
 10
177.29
 20
133.54
 10
183.11
 20
128.8
  0
LWPOLYLINE
  5
AAF5A
330
1F
100
AcDbEntity
  8
General_Feature_Line
100
AcDbPolyline
 90
     6
 43
0.0
 10
187.97
 20
164.41
 10
186.87
 20
164.45
 10
185.8
 20
164.19
 10
184.6
 20
163.46
 10
184.15
 20
162.98
 10
183.96
 20
162.74
  0
LWPOLYLINE
  5
AAF5B
330
1F
100
AcDbEntity
  8
Network_Or_Polygon_Closing_Geometry_Link_Polygon_Closing_Link_Line
100
AcDbPolyline
 90
     2
 43
0.0
 10
184.19
 20
162.56
 10
183.96
 20
162.74
  0
LWPOLYLINE
  5
AAF5C
330
1F
100
AcDbEntity
  8
Road_Or_Track_Public_Line
100
AcDbPolyline
 90
     4
 43
0.0
 10
183.96
 20
162.74
 10
177.21
 20
154.26
 10
176.69
 20
153.01
 10
176.57
 20
152.36
  0
LWPOLYLINE
  5
AAF5D
330
1F
100
AcDbEntity
  8
Building_Outline_Line
100
AcDbPolyline
 90
     3
 43
0.0
 10
192.79
 20
155.61
 10
192.59
 20
155.77
 10
184.19
 20
162.56
  0
LWPOLYLINE
  5
AAF5E
330
1F
100
AcDbEntity
  8
Building_Outline_Line
100
AcDbPolyline
 90
     2
 43
0.0
 10
184.19
 20
162.56
 10
180.18
 20
157.6
  0
LWPOLYLINE
  5
AAF5F
330
1F
100
AcDbEntity
  8
Network_Or_Polygon_Closing_Geometry_Link_Polygon_Closing_Link_Line
100
AcDbPolyline
 90
     2
 43
0.0
 10
138.68
 20
106.53
 10
139.31
 20
106.52
  0
LWPOLYLINE
  5
AAF60
330
1F
100
AcDbEntity
  8
General_Feature_Line
100
AcDbPolyline
 90
     2
 43
0.0
 10
183.6
 20
127.97
 10
185.94
 20
126.09
  0
LWPOLYLINE
  5
AAF61
330
1F
100
AcDbEntity
  8
Road_Or_Track_Public_Line
100
AcDbPolyline
 90
     9
 43
0.0
 10
151.13
 20
129.49
 10
151.26
 20
129.67
 10
161.96
 20
143.08
 10
163.0
 20
144.38
 10
167.99
 20
151.76
 10
170.08
 20
154.24
 10
170.61
 20
154.87
 10
177.05
 20
162.51
 10
178.41
 20
164.14
  0
LWPOLYLINE
  5
AAF62
330
1F
100
AcDbEntity
  8
General_Feature_Line
100
AcDbPolyline
 90
     2
 43
0.0
 10
178.06
 20
164.23
 10
182.81
 20
169.63
  0
LWPOLYLINE
  5
AAF63
330
1F
100
AcDbEntity
  8
Road_Or_Track_Public_Line
100
AcDbPolyline
 90
    15
 43
0.0
 10
182.81
 20
169.63
 10
182.66
 20
169.28
 10
182.57
 20
169.09
 10
182.47
 20
168.9
 10
182.36
 20
168.72
 10
182.12
 20
168.41
 10
181.99
 20
168.25
 10
181.84
 20
168.1
 10
181.7
 20
167.95
 10
181.55
 20
167.8
 10
181.4
 20
167.64
 10
181.26
 20
167.49
 10
179.95
 20
165.91
 10
178.53
 20
164.28
 10
178.41
 20
164.14
  0
LWPOLYLINE
  5
AAF64
330
1F
100
AcDbEntity
  8
General_Feature_Line
100
AcDbPolyline
 90
     3
 43
0.0
 10
186.11
 20
121.96
 10
185.88
 20
122.15
 10
179.87
 20
114.77
  0
LWPOLYLINE
  5
AAF65
330
1F
100
AcDbEntity
  8
General_Feature_Line
100
AcDbPolyline
 90
     2
 43
0.0
 10
194.64
 20
157.9
 10
192.79
 20
155.61
  0
LWPOLYLINE
  5
AAF66
330
1F
100
AcDbEntity
  8
General_Feature_Line
100
AcDbPolyline
 90
     2
 43
0.0
 10
201.7
 20
149.48
 10
194.64
 20
157.9
  0
LWPOLYLINE
  5
AAF67
330
1F
100
AcDbEntity
  8
Building_Outline_Line
100
AcDbPolyline
 90
     4
 43
0.0
 10
200.26
 20
147.69
 10
196.84
 20
150.45
 10
197.76
 20
151.59
 10
192.79
 20
155.61
  0
LWPOLYLINE
  5
AAF68
330
1F
100
AcDbEntity
  8
Network_Or_Polygon_Closing_Geometry_Link_Polygon_Closing_Link_Line
100
AcDbPolyline
 90
     2
 43
0.0
 10
187.97
 20
164.41
 10
182.81
 20
169.63
  0
LWPOLYLINE
  5
AAF69
330
1F
100
AcDbEntity
  8
General_Feature_Line
100
AcDbPolyline
 90
     4
 43
0.0
 10
194.64
 20
157.9
 10
190.28
 20
163.1
 10
189.19
 20
163.98
 10
187.97
 20
164.41
  0
LWPOLYLINE
  5
AAF6A
330
1F
100
AcDbEntity
  8
Network_Or_Polygon_Closing_Geometry_Link_Polygon_Closing_Link_Line
100
AcDbPolyline
 90
     2
 43
0.0
 10
120.16
 20
101.83
 10
122.69
 20
98.85
  0
LWPOLYLINE
  5
AAF6B
330
1F
100
AcDbEntity
  8
Building_Outline_Line
100
AcDbPolyline
 90
     2
 43
0.0
 10
117.5
 20
104.96
 10
109.54
 20
96.75
  0
LWPOLYLINE
  5
AAF6C
330
1F
100
AcDbEntity
  8
General_Feature_Line
100
AcDbPolyline
 90
     4
 43
0.0
 10
127.31
 20
110.58
 10
127.81
 20
109.98
 10
125.49
 20
107.58
 10
123.86
 20
105.88
  0
LWPOLYLINE
  5
AAF6D
330
1F
100
AcDbEntity
  8
General_Feature_Line
100
AcDbPolyline
 90
     3
 43
0.0
 10
128.09
 20
118.33
 10
131.61
 20
114.38
 10
127.31
 20
110.58
  0
LWPOLYLINE
  5
AAF6E
330
1F
100
AcDbEntity
  8
Road_Or_Track_Public_Line
100
AcDbPolyline
 90
    16
 43
0.0
 10
96.91
 20
143.08
 10
111.01
 20
155.03
 10
111.06
 20
155.13
 10
111.16
 20
155.18
 10
111.26
 20
155.28
 10
111.46
 20
155.38
 10
111.61
 20
155.43
 10
111.71
 20
155.48
 10
111.96
 20
155.53
 10
112.31
 20
155.58
 10
112.56
 20
155.53
 10
112.71
 20
155.48
 10
113.01
 20
155.33
 10
113.11
 20
155.23
 10
113.26
 20
155.13
 10
113.41
 20
155.08
  0
LWPOLYLINE
  5
AAF6F
330
1F
100
AcDbEntity
  8
Building_Outline_Line
100
AcDbPolyline
 90
     2
 43
0.0
 10
226.3
 20
102.93
 10
222.55
 20
107.61
  0
LWPOLYLINE
  5
AAF70
330
1F
100
AcDbEntity
  8
Building_Division_Line
100
AcDbPolyline
 90
     2
 43
0.0
 10
233.31
 20
108.57
 10
226.3
 20
102.93
  0
LWPOLYLINE
  5
AAF71
330
1F
100
AcDbEntity
  8
Building_Outline_Line
100
AcDbPolyline
 90
     2
 43
0.0
 10
229.56
 20
113.24
 10
233.31
 20
108.57
  0
LWPOLYLINE
  5
AAF72
330
1F
100
AcDbEntity
  8
Building_Outline_Line
100
AcDbPolyline
 90
     3
 43
0.0
 10
237.07
 20
103.89
 10
230.06
 20
98.25
 10
226.3
 20
102.93
  0
LWPOLYLINE
  5
AAF73
330
1F
100
AcDbEntity
  8
Building_Outline_Line
100
AcDbPolyline
 90
     2
 43
0.0
 10
218.63
 20
111.69
 10
215.42
 20
115.69
  0
LWPOLYLINE
  5
AAF74
330
1F
100
AcDbEntity
  8
Building_Division_Line
100
AcDbPolyline
 90
     2
 43
0.0
 10
222.55
 20
107.61
 10
229.56
 20
113.24
  0
LWPOLYLINE
  5
AAF75
330
1F
100
AcDbEntity
  8
Building_Outline_Line
100
AcDbPolyline
 90
     3
 43
0.0
 10
225.04
 20
116.8
 10
226.06
 20
117.61
 10
229.56
 20
113.24
  0
LWPOLYLINE
  5
AAF76
330
1F
100
AcDbEntity
  8
Building_Division_Line
100
AcDbPolyline
 90
     2
 43
0.0
 10
219.02
 20
112.01
 10
225.04
 20
116.8
  0
LWPOLYLINE
  5
AAF77
330
1F
100
AcDbEntity
  8
Building_Outline_Line
100
AcDbPolyline
 90
     2
 43
0.0
 10
222.55
 20
107.61
 10
219.02
 20
112.01
  0
LWPOLYLINE
  5
AAF78
330
1F
100
AcDbEntity
  8
General_Feature_Line
100
AcDbPolyline
 90
     2
 43
0.0
 10
251.76
 20
101.43
 10
253.12
 20
102.25
  0
LWPOLYLINE
  5
AAF79
330
1F
100
AcDbEntity
  8
General_Feature_Line
100
AcDbPolyline
 90
     2
 43
0.0
 10
226.3
 20
102.93
 10
220.84
 20
98.53
  0
LWPOLYLINE
  5
AAF7A
330
1F
100
AcDbEntity
  8
General_Feature_Line
100
AcDbPolyline
 90
    11
 43
0.0
 10
237.82
 20
102.95
 10
238.83
 20
103.76
 10
235.95
 20
107.35
 10
239.85
 20
110.48
 10
240.52
 20
111.01
 10
242.85
 20
108.1
 10
241.91
 20
107.35
 10
240.79
 20
103.64
 10
243.6
 20
100.12
 10
249.64
 20
104.93
 10
251.76
 20
101.43
  0
LWPOLYLINE
  5
AAF7B
330
1F
100
AcDbEntity
  8
General_Feature_Line
100
AcDbPolyline
 90
     2
 43
0.0
 10
224.76
 20
91.43
 10
220.84
 20
98.53
  0
LWPOLYLINE
  5
AAF7C
330
1F
100
AcDbEntity
  8
General_Feature_Line
100
AcDbPolyline
 90
     2
 43
0.0
 10
217.89
 20
103.87
 10
215.11
 20
108.9
  0
LWPOLYLINE
  5
AAF7D
330
1F
100
AcDbEntity
  8
Building_Outline_Line
100
AcDbPolyline
 90
     2
 43
0.0
 10
233.31
 20
108.57
 10
237.07
 20
103.89
  0
LWPOLYLINE
  5
AAF7E
330
1F
100
AcDbEntity
  8
General_Feature_Line
100
AcDbPolyline
 90
     2
 43
0.0
 10
222.55
 20
107.61
 10
217.89
 20
103.87
  0
LWPOLYLINE
  5
AAF7F
330
1F
100
AcDbEntity
  8
Building_Outline_Line
100
AcDbPolyline
 90
     2
 43
0.0
 10
219.02
 20
112.01
 10
218.63
 20
111.69
  0
LWPOLYLINE
  5
AAF80
330
1F
100
AcDbEntity
  8
General_Feature_Line
100
AcDbPolyline
 90
     2
 43
0.0
 10
237.07
 20
103.89
 10
237.82
 20
102.95
  0
LWPOLYLINE
  5
AAF81
330
1F
100
AcDbEntity
  8
General_Feature_Line
100
AcDbPolyline
 90
     3
 43
0.0
 10
253.12
 20
102.25
 10
264.03
 20
108.86
 10
262.22
 20
111.14
  0
LWPOLYLINE
  5
AAF82
330
1F
100
AcDbEntity
  8
General_Feature_Line
100
AcDbPolyline
 90
     5
 43
0.0
 10
246.71
 20
111.2
 10
244.38
 20
114.11
 10
240.79
 20
111.23
 10
243.12
 20
108.32
 10
246.71
 20
111.2
  0
LWPOLYLINE
  5
AAF83
330
1F
100
AcDbEntity
  8
General_Feature_Line
100
AcDbPolyline
 90
     2
 43
0.0
 10
220.84
 20
98.53
 10
217.89
 20
103.87
  0
LWPOLYLINE
  5
AAF84
330
1F
100
AcDbEntity
  8
General_Feature_Line
100
AcDbPolyline
 90
     3
 43
0.0
 10
208.66
 20
106.58
 10
214.63
 20
109.78
 10
215.11
 20
108.9
  0
LWPOLYLINE
  5
AAF85
330
1F
100
AcDbEntity
  8
General_Feature_Line
100
AcDbPolyline
 90
     2
 43
0.0
 10
227.39
 20
86.66
 10
251.76
 20
101.43
  0
LWPOLYLINE
  5
AAF86
330
1F
100
AcDbEntity
  8
General_Feature_Line
100
AcDbPolyline
 90
     3
 43
0.0
 10
203.85
 20
113.82
 10
204.68
 20
112.57
 10
207.06
 20
108.98
  0
LWPOLYLINE
  5
AAF87
330
1F
100
AcDbEntity
  8
General_Feature_Line
100
AcDbPolyline
 90
     2
 43
0.0
 10
207.06
 20
108.98
 10
215.42
 20
115.69
  0
LWPOLYLINE
  5
AAF88
330
1F
100
AcDbEntity
  8
General_Feature_Line
100
AcDbPolyline
 90
     3
 43
0.0
 10
263.58
 20
116.05
 10
265.41
 20
113.78
 10
262.22
 20
111.14
  0
LWPOLYLINE
  5
AAF89
330
1F
100
AcDbEntity
  8
General_Feature_Line
100
AcDbPolyline
 90
     3
 43
0.0
 10
237.82
 20
102.95
 10
238.32
 20
102.33
 10
224.76
 20
91.43
  0
LWPOLYLINE
  5
AAF8A
330
1F
100
AcDbEntity
  8
General_Feature_Line
100
AcDbPolyline
 90
     2
 43
0.0
 10
215.11
 20
108.9
 10
218.63
 20
111.69
  0
LWPOLYLINE
  5
AAF8B
330
1F
100
AcDbEntity
  8
Building_Division_Line
100
AcDbPolyline
 90
     4
 43
0.0
 10
190.19
 20
102.68
 10
188.0
 20
104.46
 10
186.06
 20
106.04
 10
185.72
 20
106.32
  0
LWPOLYLINE
  5
AAF8C
330
1F
100
AcDbEntity
  8
Building_Outline_Line
100
AcDbPolyline
 90
     2
 43
0.0
 10
203.36
 20
101.27
 10
202.42
 20
100.94
  0
LWPOLYLINE
  5
AAF8D
330
1F
100
AcDbEntity
  8
Building_Outline_Line
100
AcDbPolyline
 90
     6
 43
0.0
 10
194.22
 20
107.62
 10
192.02
 20
109.41
 10
190.09
 20
110.98
 10
188.15
 20
112.56
 10
185.93
 20
114.37
 10
185.78
 20
114.49
  0
LWPOLYLINE
  5
AAF8E
330
1F
100
AcDbEntity
  8
Building_Division_Line
100
AcDbPolyline
 90
     5
 43
0.0
 10
185.72
 20
106.32
 10
184.13
 20
107.62
 10
181.87
 20
109.45
 10
181.74
 20
109.56
 10
184.96
 20
113.49
  0
LWPOLYLINE
  5
AAF8F
330
1F
100
AcDbEntity
  8
Building_Outline_Line
100
AcDbPolyline
 90
     2
 43
0.0
 10
185.78
 20
114.49
 10
184.96
 20
113.49
  0
LWPOLYLINE
  5
AAF90
330
1F
100
AcDbEntity
  8
Building_Division_Line
100
AcDbPolyline
 90
     8
 43
0.0
 10
190.19
 20
102.68
 10
192.39
 20
100.89
 10
194.3
 20
99.33
 10
195.0
 20
98.76
 10
196.25
 20
97.74
 10
198.51
 20
95.9
 10
202.54
 20
100.85
 10
202.42
 20
100.94
  0
LWPOLYLINE
  5
AAF91
330
1F
100
AcDbEntity
  8
Building_Division_Line
100
AcDbPolyline
 90
     2
 43
0.0
 10
190.19
 20
102.68
 10
194.22
 20
107.62
  0
LWPOLYLINE
  5
AAF92
330
1F
100
AcDbEntity
  8
Building_Division_Line
100
AcDbPolyline
 90
     3
 43
0.0
 10
185.72
 20
106.32
 10
181.69
 20
101.38
 10
181.81
 20
101.29
  0
LWPOLYLINE
  5
AAF93
330
1F
100
AcDbEntity
  8
Building_Outline_Line
100
AcDbPolyline
 90
     5
 43
0.0
 10
202.42
 20
100.94
 10
200.28
 20
102.69
 10
198.34
 20
104.27
 10
196.41
 20
105.83
 10
194.22
 20
107.62
  0
LWPOLYLINE
  5
AAF94
330
1F
100
AcDbEntity
  8
Building_Outline_Line
100
AcDbPolyline
 90
     2
 43
0.0
 10
180.88
 20
100.15
 10
181.81
 20
101.29
  0
LWPOLYLINE
  5
AAF95
330
1F
100
AcDbEntity
  8
Building_Outline_Line
100
AcDbPolyline
 90
     4
 43
0.0
 10
211.23
 20
97.11
 10
213.11
 20
97.77
 10
210.95
 20
103.93
 10
203.36
 20
101.27
  0
LWPOLYLINE
  5
AAF96
330
1F
100
AcDbEntity
  8
Building_Division_Line
100
AcDbPolyline
 90
     4
 43
0.0
 10
200.25
 20
93.36
 10
199.68
 20
95.06
 10
203.73
 20
100.23
 10
203.36
 20
101.27
  0
LWPOLYLINE
  5
AAF97
330
1F
100
AcDbEntity
  8
General_Feature_Line
100
AcDbPolyline
 90
     3
 43
0.0
 10
201.77
 20
109.21
 10
195.89
 20
114.0
 10
199.01
 20
117.84
  0
LWPOLYLINE
  5
AAF98
330
1F
100
AcDbEntity
  8
General_Feature_Line
100
AcDbPolyline
 90
     2
 43
0.0
 10
201.77
 20
109.21
 10
203.46
 20
111.16
  0
LWPOLYLINE
  5
AAF99
330
1F
100
AcDbEntity
  8
General_Feature_Line
100
AcDbPolyline
 90
     4
 43
0.0
 10
208.66
 20
106.58
 10
208.8
 20
106.33
 10
207.16
 20
105.58
 10
203.46
 20
111.16
  0
LWPOLYLINE
  5
AAF9A
330
1F
100
AcDbEntity
  8
General_Feature_Line
100
AcDbPolyline
 90
     2
 43
0.0
 10
199.01
 20
117.84
 10
198.9
 20
118.01
  0
LWPOLYLINE
  5
AAF9B
330
1F
100
AcDbEntity
  8
General_Feature_Line
100
AcDbPolyline
 90
     2
 43
0.0
 10
201.95
 20
113.43
 10
199.01
 20
117.84
  0
LWPOLYLINE
  5
AAF9C
330
1F
100
AcDbEntity
  8
General_Feature_Line
100
AcDbPolyline
 90
     2
 43
0.0
 10
201.89
 20
113.35
 10
201.95
 20
113.43
  0
LWPOLYLINE
  5
AAF9D
330
1F
100
AcDbEntity
  8
General_Feature_Line
100
AcDbPolyline
 90
     3
 43
0.0
 10
204.7
 20
134.02
 10
200.79
 20
130.9
 10
195.37
 20
126.58
  0
LWPOLYLINE
  5
AAF9E
330
1F
100
AcDbEntity
  8
General_Feature_Line
100
AcDbPolyline
 90
     2
 43
0.0
 10
207.06
 20
108.98
 10
208.66
 20
106.58
  0
LWPOLYLINE
  5
AAF9F
330
1F
100
AcDbEntity
  8
General_Feature_Line
100
AcDbPolyline
 90
     2
 43
0.0
 10
203.46
 20
111.16
 10
201.95
 20
113.43
  0
LWPOLYLINE
  5
AAFA0
330
1F
100
AcDbEntity
  8
Building_Division_Line
100
AcDbPolyline
 90
     2
 43
0.0
 10
180.7
 20
124.38
 10
173.78
 20
129.97
  0
LWPOLYLINE
  5
AAFA1
330
1F
100
AcDbEntity
  8
Building_Division_Line
100
AcDbPolyline
 90
     2
 43
0.0
 10
177.69
 20
120.66
 10
170.78
 20
126.25
  0
LWPOLYLINE
  5
AAFA2
330
1F
100
AcDbEntity
  8
General_Feature_Line
100
AcDbPolyline
 90
     2
 43
0.0
 10
185.94
 20
126.09
 10
192.86
 20
134.5
  0
LWPOLYLINE
  5
AAFA3
330
1F
100
AcDbEntity
  8
Building_Outline_Line
100
AcDbPolyline
 90
     4
 43
0.0
 10
184.96
 20
113.49
 10
183.07
 20
115.03
 10
181.66
 20
113.31
 10
179.87
 20
114.77
  0
LWPOLYLINE
  5
AAFA4
330
1F
100
AcDbEntity
  8
General_Feature_Line
100
AcDbPolyline
 90
     5
 43
0.0
 10
214.51
 20
88.06
 10
219.14
 20
89.69
 10
213.01
 20
107.17
 10
206.91
 20
105.03
 10
201.77
 20
109.21
  0
LWPOLYLINE
  5
AAFA5
330
1F
100
AcDbEntity
  8
General_Feature_Line
100
AcDbPolyline
 90
     3
 43
0.0
 10
198.9
 20
118.01
 10
193.87
 20
125.58
 10
195.37
 20
126.58
  0
LWPOLYLINE
  5
AAFA6
330
1F
100
AcDbEntity
  8
Building_Outline_Line
100
AcDbPolyline
 90
     2
 43
0.0
 10
158.53
 20
108.6
 10
155.52
 20
104.88
  0
LWPOLYLINE
  5
AAFA7
330
1F
100
AcDbEntity
  8
Building_Outline_Line
100
AcDbPolyline
 90
     2
 43
0.0
 10
175.32
 20
138.32
 10
176.55
 20
139.84
  0
LWPOLYLINE
  5
AAFA8
330
1F
100
AcDbEntity
  8
Network_Or_Polygon_Closing_Geometry_Link_Polygon_Closing_Link_Line
100
AcDbPolyline
 90
     2
 43
0.0
 10
151.13
 20
129.49
 10
150.84
 20
130.05
  0
LWPOLYLINE
  5
AAFA9
330
1F
100
AcDbEntity
  8
Building_Outline_Line
100
AcDbPolyline
 90
     3
 43
0.0
 10
159.52
 20
95.69
 10
160.82
 20
97.29
 10
162.44
 20
99.29
  0
LWPOLYLINE
  5
AAFAA
330
1F
100
AcDbEntity
  8
Building_Division_Line
100
AcDbPolyline
 90
     2
 43
0.0
 10
159.52
 20
95.69
 10
152.61
 20
101.28
  0
LWPOLYLINE
  5
AAFAB
330
1F
100
AcDbEntity
  8
Building_Outline_Line
100
AcDbPolyline
 90
     2
 43
0.0
 10
155.52
 20
104.88
 10
152.61
 20
101.28
  0
LWPOLYLINE
  5
AAFAC
330
1F
100
AcDbEntity
  8
Building_Division_Line
100
AcDbPolyline
 90
     2
 43
0.0
 10
174.69
 20
116.94
 10
167.77
 20
122.53
  0
LWPOLYLINE
  5
AAFAD
330
1F
100
AcDbEntity
  8
Building_Division_Line
100
AcDbPolyline
 90
     2
 43
0.0
 10
168.45
 20
106.73
 10
161.53
 20
112.32
  0
LWPOLYLINE
  5
AAFAE
330
1F
100
AcDbEntity
  8
Building_Division_Line
100
AcDbPolyline
 90
     2
 43
0.0
 10
165.44
 20
103.01
 10
158.53
 20
108.6
  0
LWPOLYLINE
  5
AAFAF
330
1F
100
AcDbEntity
  8
Building_Division_Line
100
AcDbPolyline
 90
     2
 43
0.0
 10
162.44
 20
99.29
 10
155.52
 20
104.88
  0
LWPOLYLINE
  5
AAFB0
330
1F
100
AcDbEntity
  8
General_Feature_Line
100
AcDbPolyline
 90
     4
 43
0.0
 10
198.9
 20
118.01
 10
193.46
 20
122.44
 10
190.3
 20
118.56
 10
186.11
 20
121.96
  0
LWPOLYLINE
  5
AAFB1
330
1F
100
AcDbEntity
  8
Building_Outline_Line
100
AcDbPolyline
 90
     2
 43
0.0
 10
170.78
 20
126.25
 10
167.77
 20
122.53
  0
LWPOLYLINE
  5
AAFB2
330
1F
100
AcDbEntity
  8
Building_Outline_Line
100
AcDbPolyline
 90
     2
 43
0.0
 10
183.73
 20
128.13
 10
183.11
 20
128.8
  0
LWPOLYLINE
  5
AAFB3
330
1F
100
AcDbEntity
  8
Building_Outline_Line
100
AcDbPolyline
 90
     2
 43
0.0
 10
170.78
 20
126.25
 10
173.78
 20
129.97
  0
LWPOLYLINE
  5
AAFB4
330
1F
100
AcDbEntity
  8
Building_Outline_Line
100
AcDbPolyline
 90
     2
 43
0.0
 10
177.69
 20
120.66
 10
180.7
 20
124.38
  0
LWPOLYLINE
  5
AAFB5
330
1F
100
AcDbEntity
  8
Building_Outline_Line
100
AcDbPolyline
 90
     2
 43
0.0
 10
174.69
 20
116.94
 10
177.69
 20
120.66
  0
LWPOLYLINE
  5
AAFB6
330
1F
100
AcDbEntity
  8
Road_Or_Track_Public_Line
100
AcDbPolyline
 90
     4
 43
0.0
 10
177.44
 20
148.1
 10
177.56
 20
147.87
 10
178.44
 20
146.88
 10
178.98
 20
146.43
  0
LWPOLYLINE
  5
AAFB7
330
1F
100
AcDbEntity
  8
Road_Or_Track_Public_Line
100
AcDbPolyline
 90
   107
 43
0.0
 10
192.86
 20
134.5
 10
192.97
 20
134.64
 10
193.03
 20
134.73
 10
193.09
 20
134.83
 10
193.14
 20
134.93
 10
193.2
 20
135.03
 10
193.24
 20
135.13
 10
193.29
 20
135.24
 10
193.33
 20
135.34
 10
193.36
 20
135.45
 10
193.39
 20
135.56
 10
193.41
 20
135.67
 10
193.44
 20
135.78
 10
193.45
 20
135.89
 10
193.46
 20
136.01
 10
193.47
 20
136.16
 10
193.47
 20
136.27
 10
193.46
 20
136.39
 10
193.45
 20
136.5
 10
193.44
 20
136.61
 10
193.42
 20
136.73
 10
193.4
 20
136.84
 10
193.37
 20
136.95
 10
193.34
 20
137.05
 10
193.3
 20
137.16
 10
193.26
 20
137.27
 10
193.21
 20
137.37
 10
197.82
 20
143.08
 10
199.91
 20
145.66
 10
199.97
 20
145.61
 10
200.03
 20
145.56
 10
200.1
 20
145.51
 10
200.16
 20
145.47
 10
200.23
 20
145.43
 10
200.3
 20
145.4
 10
200.37
 20
145.36
 10
200.44
 20
145.33
 10
200.52
 20
145.31
 10
200.59
 20
145.28
 10
200.67
 20
145.26
 10
200.74
 20
145.24
 10
200.82
 20
145.23
 10
200.9
 20
145.22
 10
200.98
 20
145.21
 10
201.06
 20
145.2
 10
201.14
 20
145.2
 10
201.22
 20
145.2
 10
201.3
 20
145.2
 10
201.37
 20
145.21
 10
201.45
 20
145.22
 10
201.53
 20
145.23
 10
201.61
 20
145.25
 10
201.69
 20
145.27
 10
201.76
 20
145.29
 10
201.84
 20
145.31
 10
201.91
 20
145.34
 10
201.98
 20
145.37
 10
202.05
 20
145.4
 10
202.12
 20
145.44
 10
202.19
 20
145.48
 10
202.26
 20
145.52
 10
202.32
 20
145.57
 10
202.38
 20
145.61
 10
202.44
 20
145.66
 10
202.5
 20
145.72
 10
202.59
 20
145.81
 10
202.65
 20
145.89
 10
202.71
 20
145.97
 10
202.77
 20
146.06
 10
202.82
 20
146.15
 10
202.86
 20
146.24
 10
202.9
 20
146.33
 10
202.94
 20
146.43
 10
202.97
 20
146.53
 10
203.0
 20
146.63
 10
203.02
 20
146.73
 10
203.05
 20
146.9
 10
203.06
 20
147.0
 10
203.07
 20
147.1
 10
203.08
 20
147.21
 10
203.08
 20
147.31
 10
203.07
 20
147.41
 10
203.06
 20
147.51
 10
203.05
 20
147.61
 10
203.03
 20
147.71
 10
203.01
 20
147.81
 10
202.98
 20
147.91
 10
202.95
 20
148.01
 10
202.92
 20
148.11
 10
202.88
 20
148.2
 10
202.84
 20
148.3
 10
202.79
 20
148.39
 10
202.75
 20
148.48
 10
202.69
 20
148.57
 10
202.64
 20
148.65
 10
202.58
 20
148.74
 10
202.52
 20
148.82
 10
202.45
 20
148.9
 10
202.38
 20
148.97
 10
202.31
 20
149.05
 10
202.24
 20
149.12
 10
202.16
 20
149.18
 10
202.08
 20
149.25
 10
202.0
 20
149.31
 10
201.91
 20
149.36
 10
201.82
 20
149.41
 10
201.7
 20
149.48
  0
LWPOLYLINE
  5
AAFB8
330
1F
100
AcDbEntity
  8
General_Feature_Line
100
AcDbPolyline
 90
     3
 43
0.0
 10
183.73
 20
128.13
 10
184.25
 20
127.87
 10
188.54
 20
133.18
  0
LWPOLYLINE
  5
AAFB9
330
1F
100
AcDbEntity
  8
Road_Or_Track_Public_Line
100
AcDbPolyline
 90
     6
 43
0.0
 10
192.86
 20
134.5
 10
197.03
 20
130.38
 10
198.08
 20
130.33
 10
207.31
 20
139.07
 10
209.33
 20
140.57
 10
212.27
 20
140.06
  0
LWPOLYLINE
  5
AAFBA
330
1F
100
AcDbEntity
  8
Road_Or_Track_Public_Line
100
AcDbPolyline
 90
    17
 43
0.0
 10
138.68
 20
106.53
 10
143.32
 20
112.28
 10
145.04
 20
114.39
 10
147.42
 20
117.62
 10
150.09
 20
121.56
 10
153.01
 20
125.84
 10
156.73
 20
130.54
 10
167.38
 20
140.41
 10
168.27
 20
141.24
 10
168.79
 20
141.64
 10
169.32
 20
142.05
 10
170.46
 20
142.5
 10
171.55
 20
142.63
 10
172.74
 20
142.47
 10
173.58
 20
142.08
 10
174.16
 20
141.8
 10
176.55
 20
139.84
  0
LWPOLYLINE
  5
AAFBB
330
1F
100
AcDbEntity
  8
General_Feature_Line
100
AcDbPolyline
 90
     5
 43
0.0
 10
201.89
 20
113.35
 10
198.3
 20
116.27
 10
196.34
 20
113.86
 10
199.93
 20
110.94
 10
201.89
 20
113.35
  0
LWPOLYLINE
  5
AAFBC
330
1F
100
AcDbEntity
  8
General_Feature_Line
100
AcDbPolyline
 90
     5
 43
0.0
 10
220.5
 20
97.61
 10
217.57
 20
96.58
 10
219.1
 20
92.22
 10
222.03
 20
93.25
 10
220.5
 20
97.61
  0
LWPOLYLINE
  5
AAFBD
330
1F
100
AcDbEntity
  8
Building_Outline_Line
100
AcDbPolyline
 90
     2
 43
0.0
 10
164.08
 20
101.33
 10
165.44
 20
103.01
  0
LWPOLYLINE
  5
AAFBE
330
1F
100
AcDbEntity
  8
Building_Outline_Line
100
AcDbPolyline
 90
     2
 43
0.0
 10
165.44
 20
103.01
 10
168.45
 20
106.73
  0
LWPOLYLINE
  5
AAFBF
330
1F
100
AcDbEntity
  8
Building_Outline_Line
100
AcDbPolyline
 90
     2
 43
0.0
 10
164.63
 20
116.15
 10
161.53
 20
112.32
  0
LWPOLYLINE
  5
AAFC0
330
1F
100
AcDbEntity
  8
Building_Outline_Line
100
AcDbPolyline
 90
     2
 43
0.0
 10
161.53
 20
112.32
 10
158.53
 20
108.6
  0
LWPOLYLINE
  5
AAFC1
330
1F
100
AcDbEntity
  8
Building_Outline_Line
100
AcDbPolyline
 90
     2
 43
0.0
 10
183.6
 20
127.97
 10
183.73
 20
128.13
  0
LWPOLYLINE
  5
AAFC2
330
1F
100
AcDbEntity
  8
Building_Outline_Line
100
AcDbPolyline
 90
     2
 43
0.0
 10
171.59
 20
113.11
 10
174.69
 20
116.94
  0
LWPOLYLINE
  5
AAFC3
330
1F
100
AcDbEntity
  8
Building_Outline_Line
100
AcDbPolyline
 90
     2
 43
0.0
 10
176.79
 20
133.69
 10
173.78
 20
129.97
  0
LWPOLYLINE
  5
AAFC4
330
1F
100
AcDbEntity
  8
General_Feature_Line
100
AcDbPolyline
 90
     3
 43
0.0
 10
177.44
 20
148.1
 10
179.17
 20
150.26
 10
176.57
 20
152.36
  0
LWPOLYLINE
  5
AAFC5
330
1F
100
AcDbEntity
  8
Building_Outline_Line
100
AcDbPolyline
 90
     2
 43
0.0
 10
180.72
 20
145.0
 10
182.62
 20
147.35
  0
LWPOLYLINE
  5
AAFC6
330
1F
100
AcDbEntity
  8
General_Feature_Line
100
AcDbPolyline
 90
     2
 43
0.0
 10
200.26
 20
147.69
 10
201.7
 20
149.48
  0
LWPOLYLINE
  5
AAFC7
330
1F
100
AcDbEntity
  8
General_Feature_Line
100
AcDbPolyline
 90
     3
 43
0.0
 10
182.62
 20
147.35
 10
180.87
 20
148.76
 10
178.98
 20
146.43
  0
LWPOLYLINE
  5
AAFC8
330
1F
100
AcDbEntity
  8
Road_Or_Track_Public_Line
100
AcDbPolyline
 90
     5
 43
0.0
 10
176.57
 20
152.36
 10
176.47
 20
151.83
 10
176.53
 20
150.39
 10
176.89
 20
149.11
 10
177.44
 20
148.1
  0
LWPOLYLINE
  5
AAFC9
330
1F
100
AcDbEntity
  8
Road_Or_Track_Public_Line
100
AcDbPolyline
 90
     2
 43
0.0
 10
178.98
 20
146.43
 10
180.72
 20
145.0
  0
LWPOLYLINE
  5
AAFCA
330
1F
100
AcDbEntity
  8
Building_Outline_Line
100
AcDbPolyline
 90
     2
 43
0.0
 10
182.62
 20
147.35
 10
183.74
 20
148.74
  0
LWPOLYLINE
  5
AAFCB
330
1F
100
AcDbEntity
  8
General_Feature_Line
100
AcDbPolyline
 90
     2
 43
0.0
 10
172.66
 20
137.04
 10
176.79
 20
133.69
  0
LWPOLYLINE
  5
AAFCC
330
1F
100
AcDbEntity
  8
General_Feature_Line
100
AcDbPolyline
 90
     2
 43
0.0
 10
154.02
 20
112.27
 10
157.01
 20
115.97
  0
LWPOLYLINE
  5
AAFCD
330
1F
100
AcDbEntity
  8
General_Feature_Line
100
AcDbPolyline
 90
     2
 43
0.0
 10
166.67
 20
129.64
 10
169.67
 20
133.35
  0
LWPOLYLINE
  5
AAFCE
330
1F
100
AcDbEntity
  8
General_Feature_Line
100
AcDbPolyline
 90
     4
 43
0.0
 10
187.57
 20
96.59
 10
186.32
 20
95.04
 10
183.97
 20
94.79
 10
179.48
 20
98.42
  0
LWPOLYLINE
  5
AAFCF
330
1F
100
AcDbEntity
  8
General_Feature_Line
100
AcDbPolyline
 90
     3
 43
0.0
 10
171.59
 20
113.11
 10
174.08
 20
111.1
 10
177.14
 20
114.97
  0
LWPOLYLINE
  5
AAFD0
330
1F
100
AcDbEntity
  8
Building_Outline_Line
100
AcDbPolyline
 90
     2
 43
0.0
 10
152.61
 20
101.28
 10
152.44
 20
101.07
  0
LWPOLYLINE
  5
AAFD1
330
1F
100
AcDbEntity
  8
Building_Outline_Line
100
AcDbPolyline
 90
     2
 43
0.0
 10
162.44
 20
99.29
 10
164.08
 20
101.33
  0
LWPOLYLINE
  5
AAFD2
330
1F
100
AcDbEntity
  8
Building_Outline_Line
100
AcDbPolyline
 90
     3
 43
0.0
 10
177.29
 20
133.54
 10
176.92
 20
133.85
 10
176.79
 20
133.69
  0
LWPOLYLINE
  5
AAFD3
330
1F
100
AcDbEntity
  8
Building_Outline_Line
100
AcDbPolyline
 90
     2
 43
0.0
 10
168.45
 20
106.73
 10
171.55
 20
110.56
  0
LWPOLYLINE
  5
AAFD4
330
1F
100
AcDbEntity
  8
General_Feature_Line
100
AcDbPolyline
 90
     2
 43
0.0
 10
151.01
 20
108.55
 10
155.52
 20
104.88
  0
LWPOLYLINE
  5
AAFD5
330
1F
100
AcDbEntity
  8
General_Feature_Line
100
AcDbPolyline
 90
     2
 43
0.0
 10
166.67
 20
129.64
 10
170.78
 20
126.25
  0
LWPOLYLINE
  5
AAFD6
330
1F
100
AcDbEntity
  8
General_Feature_Line
100
AcDbPolyline
 90
     2
 43
0.0
 10
169.67
 20
133.35
 10
173.78
 20
129.97
  0
LWPOLYLINE
  5
AAFD7
330
1F
100
AcDbEntity
  8
General_Feature_Line
100
AcDbPolyline
 90
     2
 43
0.0
 10
169.78
 20
105.65
 10
168.45
 20
106.73
  0
LWPOLYLINE
  5
AAFD8
330
1F
100
AcDbEntity
  8
General_Feature_Line
100
AcDbPolyline
 90
     2
 43
0.0
 10
157.01
 20
115.97
 10
161.53
 20
112.32
  0
LWPOLYLINE
  5
AAFD9
330
1F
100
AcDbEntity
  8
General_Feature_Line
100
AcDbPolyline
 90
     3
 43
0.0
 10
157.01
 20
115.97
 10
160.11
 20
119.81
 10
164.63
 20
116.15
  0
LWPOLYLINE
  5
AAFDA
330
1F
100
AcDbEntity
  8
General_Feature_Line
100
AcDbPolyline
 90
     2
 43
0.0
 10
163.64
 20
125.89
 10
167.77
 20
122.53
  0
LWPOLYLINE
  5
AAFDB
330
1F
100
AcDbEntity
  8
General_Feature_Line
100
AcDbPolyline
 90
     3
 43
0.0
 10
164.67
 20
118.69
 10
160.53
 20
122.04
 10
163.64
 20
125.89
  0
LWPOLYLINE
  5
AAFDC
330
1F
100
AcDbEntity
  8
General_Feature_Line
100
AcDbPolyline
 90
     2
 43
0.0
 10
163.64
 20
125.89
 10
166.67
 20
129.64
  0
LWPOLYLINE
  5
AAFDD
330
1F
100
AcDbEntity
  8
General_Feature_Line
100
AcDbPolyline
 90
     3
 43
0.0
 10
171.55
 20
110.56
 10
172.9
 20
109.47
 10
169.78
 20
105.65
  0
LWPOLYLINE
  5
AAFDE
330
1F
100
AcDbEntity
  8
General_Feature_Line
100
AcDbPolyline
 90
     2
 43
0.0
 10
169.78
 20
105.65
 10
165.4
 20
100.25
  0
LWPOLYLINE
  5
AAFDF
330
1F
100
AcDbEntity
  8
General_Feature_Line
100
AcDbPolyline
 90
     2
 43
0.0
 10
169.67
 20
133.35
 10
172.66
 20
137.04
  0
LWPOLYLINE
  5
AAFE0
330
1F
100
AcDbEntity
  8
General_Feature_Line
100
AcDbPolyline
 90
     2
 43
0.0
 10
154.02
 20
112.27
 10
158.53
 20
108.6
  0
LWPOLYLINE
  5
AAFE1
330
1F
100
AcDbEntity
  8
General_Feature_Line
100
AcDbPolyline
 90
     3
 43
0.0
 10
152.44
 20
101.07
 10
147.92
 20
104.73
 10
151.01
 20
108.55
  0
LWPOLYLINE
  5
AAFE2
330
1F
100
AcDbEntity
  8
General_Feature_Line
100
AcDbPolyline
 90
     2
 43
0.0
 10
151.01
 20
108.55
 10
154.02
 20
112.27
  0
LWPOLYLINE
  5
AAFE3
330
1F
100
AcDbEntity
  8
General_Feature_Line
100
AcDbPolyline
 90
     2
 43
0.0
 10
180.1
 20
118.71
 10
177.14
 20
114.97
  0
LWPOLYLINE
  5
AAFE4
330
1F
100
AcDbEntity
  8
Building_Outline_Line
100
AcDbPolyline
 90
     2
 43
0.0
 10
167.77
 20
122.53
 10
164.67
 20
118.69
  0
LWPOLYLINE
  5
AAFE5
330
1F
100
AcDbEntity
  8
Building_Outline_Line
100
AcDbPolyline
 90
     2
 43
0.0
 10
164.67
 20
118.69
 10
171.59
 20
113.11
  0
LWPOLYLINE
  5
AAFE6
330
1F
100
AcDbEntity
  8
Building_Outline_Line
100
AcDbPolyline
 90
     4
 43
0.0
 10
177.97
 20
112.44
 10
179.37
 20
111.3
 10
174.51
 20
105.34
 10
180.88
 20
100.15
  0
LWPOLYLINE
  5
AAFE7
330
1F
100
AcDbEntity
  8
Building_Outline_Line
100
AcDbPolyline
 90
     2
 43
0.0
 10
181.81
 20
101.29
 10
187.57
 20
96.59
  0
LWPOLYLINE
  5
AAFE8
330
1F
100
AcDbEntity
  8
Building_Outline_Line
100
AcDbPolyline
 90
     2
 43
0.0
 10
179.87
 20
114.77
 10
177.97
 20
112.44
  0
LWPOLYLINE
  5
AAFE9
330
1F
100
AcDbEntity
  8
General_Feature_Line
100
AcDbPolyline
 90
     2
 43
0.0
 10
172.66
 20
137.04
 10
168.6
 20
140.32
  0
LWPOLYLINE
  5
AAFEA
330
1F
100
AcDbEntity
  8
General_Feature_Line
100
AcDbPolyline
 90
     4
 43
0.0
 10
179.48
 20
98.42
 10
171.65
 20
104.76
 10
177.93
 20
112.47
 10
177.97
 20
112.44
  0
LWPOLYLINE
  5
AAFEB
330
1F
100
AcDbEntity
  8
General_Feature_Line
100
AcDbPolyline
 90
     2
 43
0.0
 10
165.4
 20
100.25
 10
164.08
 20
101.33
  0
LWPOLYLINE
  5
AAFEC
330
1F
100
AcDbEntity
  8
General_Feature_Line
100
AcDbPolyline
 90
     2
 43
0.0
 10
163.75
 20
98.23
 10
162.44
 20
99.29
  0
LWPOLYLINE
  5
AAFED
330
1F
100
AcDbEntity
  8
General_Feature_Line
100
AcDbPolyline
 90
     2
 43
0.0
 10
174.69
 20
116.94
 10
177.14
 20
114.97
  0
LWPOLYLINE
  5
AAFEE
330
1F
100
AcDbEntity
  8
General_Feature_Line
100
AcDbPolyline
 90
     2
 43
0.0
 10
179.48
 20
98.42
 10
180.88
 20
100.15
  0
LWPOLYLINE
  5
AAFEF
330
1F
100
AcDbEntity
  8
Building_Outline_Line
100
AcDbPolyline
 90
     2
 43
0.0
 10
171.55
 20
110.56
 10
164.63
 20
116.15
  0
LWPOLYLINE
  5
AAFF0
330
1F
100
AcDbEntity
  8
General_Feature_Line
100
AcDbPolyline
 90
    15
 43
0.0
 10
138.68
 20
106.53
 10
139.6
 20
106.89
 10
140.77
 20
106.9
 10
141.97
 20
106.39
 10
145.61
 20
103.45
 10
159.21
 20
120.28
 10
154.28
 20
124.33
 10
154.2
 20
124.9
 10
154.51
 20
125.36
 10
155.12
 20
125.49
 10
155.54
 20
125.26
 10
159.35
 20
122.18
 10
171.44
 20
137.14
 10
168.21
 20
139.74
 10
168.6
 20
140.32
  0
LWPOLYLINE
  5
AAFF1
330
1F
100
AcDbEntity
  8
Building_Outline_Line
100
AcDbPolyline
 90
     4
 43
0.0
 10
139.31
 20
106.52
 10
137.24
 20
103.95
 10
129.76
 20
94.7
 10
129.92
 20
94.57
  0
LWPOLYLINE
  5
AAFF2
330
1F
100
AcDbEntity
  8
General_Feature_Line
100
AcDbPolyline
 90
     2
 43
0.0
 10
177.69
 20
120.66
 10
180.1
 20
118.71
  0
LWPOLYLINE
  5
AAFF3
330
1F
100
AcDbEntity
  8
General_Feature_Line
100
AcDbPolyline
 90
     2
 43
0.0
 10
183.03
 20
122.49
 10
180.1
 20
118.71
  0
LWPOLYLINE
  5
AAFF4
330
1F
100
AcDbEntity
  8
General_Feature_Line
100
AcDbPolyline
 90
     2
 43
0.0
 10
185.94
 20
126.09
 10
183.03
 20
122.49
  0
LWPOLYLINE
  5
AAFF5
330
1F
100
AcDbEntity
  8
Building_Outline_Line
100
AcDbPolyline
 90
     2
 43
0.0
 10
180.7
 20
124.38
 10
183.6
 20
127.97
  0
LWPOLYLINE
  5
AAFF6
330
1F
100
AcDbEntity
  8
General_Feature_Line
100
AcDbPolyline
 90
     2
 43
0.0
 10
180.7
 20
124.38
 10
183.03
 20
122.49
  0
LWPOLYLINE
  5
AAFF7
330
1F
100
AcDbEntity
  8
General_Feature_Line
100
AcDbPolyline
 90
     2
 43
0.0
 10
160.6
 20
94.44
 10
163.75
 20
98.23
  0
LWPOLYLINE
  5
AAFF8
330
1F
100
AcDbEntity
  8
General_Feature_Line
100
AcDbPolyline
 90
     2
 43
0.0
 10
165.4
 20
100.25
 10
163.75
 20
98.23
  0
LWPOLYLINE
  5
AAFF9
330
1F
100
AcDbEntity
  8
General_Feature_Line
100
AcDbPolyline
 90
     7
 43
0.0
 10
274.26
 20
113.28
 10
273.71
 20
112.88
 10
270.71
 20
110.58
 10
271.41
 20
109.63
 10
258.11
 20
100.33
 10
248.86
 20
94.53
 10
228.46
 20
83.58
  0
LWPOLYLINE
  5
AAFFA
330
1F
100
AcDbEntity
  8
Building_Outline_Line
100
AcDbPolyline
 90
     2
 43
0.0
 10
205.56
 20
95.13
 10
211.23
 20
97.11
  0
LWPOLYLINE
  5
AAFFB
330
1F
100
AcDbEntity
  8
Road_Or_Track_Public_Line
100
AcDbPolyline
 90
     3
 43
0.0
 10
211.23
 20
97.11
 10
214.42
 20
88.19
 10
214.51
 20
88.06
  0
LWPOLYLINE
  5
AAFFC
330
1F
100
AcDbEntity
  8
Building_Outline_Line
100
AcDbPolyline
 90
     3
 43
0.0
 10
152.44
 20
101.07
 10
149.92
 20
97.95
 10
139.31
 20
106.52
  0
LWPOLYLINE
  5
AAFFD
330
1F
100
AcDbEntity
  8
Road_Or_Track_Public_Line
100
AcDbPolyline
 90
     4
 43
0.0
 10
138.68
 20
106.53
 10
138.02
 20
105.98
 10
129.63
 20
95.56
 10
128.8
 20
93.9
  0
LWPOLYLINE
  5
AAFFE
330
1F
100
AcDbEntity
  8
Road_Or_Track_Public_Line
100
AcDbPolyline
 90
    25
 43
0.0
 10
82.71
 20
46.13
 10
82.79
 20
46.35
 10
83.24
 20
47.56
 10
83.39
 20
48.66
 10
83.53
 20
50.8
 10
84.13
 20
53.13
 10
84.78
 20
54.57
 10
85.91
 20
56.32
 10
87.35
 20
57.85
 10
95.0
 20
64.49
 10
99.68
 20
68.82
 10
104.28
 20
73.46
 10
113.35
 20
82.91
 10
115.04
 20
84.07
 10
117.21
 20
85.03
 10
119.8
 20
85.82
 10
121.17
 20
86.57
 10
122.57
 20
87.79
 10
123.77
 20
89.49
 10
124.49
 20
91.37
 10
124.97
 20
94.05
 10
125.67
 20
96.03
 10
126.81
 20
98.0
 10
144.42
 20
119.96
 10
151.13
 20
129.49
  0
LWPOLYLINE
  5
AAFFF
330
1F
100
AcDbEntity
  8
Rail_Standard_Gauge_Track_Line
100
AcDbPolyline
 90
     9
 43
0.0
 10
246.05
 20
85.93
 10
254.86
 20
91.48
 10
259.76
 20
94.73
 10
264.71
 20
98.08
 10
268.16
 20
100.43
 10
271.66
 20
102.83
 10
273.96
 20
104.48
 10
276.26
 20
106.08
 10
277.36
 20
106.82
  0
LWPOLYLINE
  5
AB000
330
1F
100
AcDbEntity
  8
Rail_Standard_Gauge_Track_Line
100
AcDbPolyline
 90
     6
 43
0.0
 10
245.38
 20
87.22
 10
254.11
 20
92.68
 10
263.91
 20
99.28
 10
270.91
 20
104.08
 10
275.51
 20
107.28
 10
277.36
 20
108.55
  0
LWPOLYLINE
  5
AB001
330
1F
100
AcDbEntity
  8
Building_Division_Line
100
AcDbPolyline
 90
     2
 43
0.0
 10
94.09
 20
234.31
 10
94.02
 20
234.98
  0
LWPOLYLINE
  5
AB002
330
1F
100
AcDbEntity
  8
Building_Outline_Line
100
AcDbPolyline
 90
     2
 43
0.0
 10
271.41
 20
228.55
 10
273.69
 20
224.91
  0
LWPOLYLINE
  5
AB003
330
1F
100
AcDbEntity
  8
Building_Outline_Line
100
AcDbPolyline
 90
     2
 43
0.0
 10
273.69
 20
224.91
 10
277.36
 20
219.05
  0
LWPOLYLINE
  5
AB004
330
1F
100
AcDbEntity
  8
General_Feature_Line
100
AcDbPolyline
 90
    40
 43
0.0
 10
273.69
 20
224.91
 10
273.59
 20
224.88
 10
273.53
 20
224.86
 10
273.47
 20
224.84
 10
273.41
 20
224.81
 10
273.35
 20
224.78
 10
273.29
 20
224.75
 10
273.24
 20
224.72
 10
273.18
 20
224.68
 10
273.13
 20
224.64
 10
273.08
 20
224.6
 10
273.03
 20
224.56
 10
272.98
 20
224.52
 10
272.93
 20
224.47
 10
272.89
 20
224.42
 10
272.85
 20
224.37
 10
272.81
 20
224.32
 10
272.77
 20
224.27
 10
272.73
 20
224.21
 10
272.7
 20
224.16
 10
272.67
 20
224.1
 10
272.64
 20
224.04
 10
272.61
 20
223.98
 10
272.59
 20
223.92
 10
272.57
 20
223.86
 10
272.55
 20
223.79
 10
272.53
 20
223.7
 10
272.52
 20
223.63
 10
272.51
 20
223.57
 10
272.5
 20
223.5
 10
272.5
 20
223.44
 10
272.5
 20
223.37
 10
272.51
 20
223.3
 10
272.51
 20
223.24
 10
272.52
 20
223.17
 10
272.53
 20
223.11
 10
272.54
 20
223.05
 10
272.56
 20
222.98
 10
272.58
 20
222.92
 10
277.36
 20
215.29
  0
LWPOLYLINE
  5
AB005
330
1F
100
AcDbEntity
  8
General_Feature_Line
100
AcDbPolyline
 90
    31
 43
0.0
 10
271.41
 20
228.55
 10
271.16
 20
228.44
 10
271.03
 20
228.39
 10
270.9
 20
228.35
 10
270.77
 20
228.32
 10
270.63
 20
228.29
 10
270.5
 20
228.26
 10
270.36
 20
228.24
 10
270.23
 20
228.23
 10
269.99
 20
228.21
 10
269.85
 20
228.21
 10
269.71
 20
228.23
 10
269.61
 20
228.25
 10
269.55
 20
228.27
 10
269.49
 20
228.29
 10
269.43
 20
228.31
 10
269.38
 20
228.34
 10
269.32
 20
228.36
 10
269.27
 20
228.39
 10
266.48
 20
232.84
 10
266.27
 20
233.1
 10
266.06
 20
233.35
 10
265.83
 20
233.58
 10
265.6
 20
233.81
 10
265.35
 20
234.03
 10
265.1
 20
234.24
 10
264.84
 20
234.44
 10
264.57
 20
234.63
 10
264.29
 20
234.81
 10
264.01
 20
234.97
 10
263.99
 20
234.98
  0
LWPOLYLINE
  5
AB006
330
1F
100
AcDbEntity
  8
General_Feature_Line
100
AcDbPolyline
 90
     9
 43
0.0
 10
255.42
 20
234.98
 10
255.03
 20
234.82
 10
254.55
 20
234.6
 10
254.08
 20
234.36
 10
253.61
 20
234.1
 10
253.16
 20
233.82
 10
252.53
 20
233.38
 10
245.42
 20
227.79
 10
225.66
 20
212.88
  0
LWPOLYLINE
  5
AB007
330
1F
100
AcDbEntity
  8
General_Feature_Line
100
AcDbPolyline
 90
     2
 43
0.0
 10
267.51
 20
234.78
 10
267.83
 20
234.98
  0
LWPOLYLINE
  5
AB008
330
1F
100
AcDbEntity
  8
General_Feature_Line
100
AcDbPolyline
 90
     2
 43
0.0
 10
267.51
 20
234.78
 10
268.09
 20
233.85
  0
LWPOLYLINE
  5
AB009
330
1F
100
AcDbEntity
  8
Building_Outline_Line
100
AcDbPolyline
 90
     2
 43
0.0
 10
268.09
 20
233.85
 10
271.41
 20
228.55
  0
LWPOLYLINE
  5
AB00A
330
1F
100
AcDbEntity
  8
General_Feature_Line
100
AcDbPolyline
 90
     3
 43
0.0
 10
269.31
 20
208.68
 10
265.82
 20
213.14
 10
263.02
 20
227.25
  0
LWPOLYLINE
  5
AB00B
330
1F
100
AcDbEntity
  8
General_Feature_Line
100
AcDbPolyline
 90
     3
 43
0.0
 10
273.81
 20
207.08
 10
271.01
 20
206.63
 10
269.31
 20
208.68
  0
LWPOLYLINE
  5
AB00C
330
1F
100
AcDbEntity
  8
General_Feature_Line
100
AcDbPolyline
 90
    36
 43
0.0
 10
263.07
 20
227.85
 10
263.07
 20
227.86
 10
263.06
 20
227.87
 10
263.06
 20
227.89
 10
263.05
 20
227.9
 10
263.04
 20
227.91
 10
263.03
 20
227.92
 10
263.02
 20
227.92
 10
263.01
 20
227.93
 10
263.0
 20
227.94
 10
262.99
 20
227.94
 10
262.98
 20
227.95
 10
262.96
 20
227.95
 10
262.95
 20
227.95
 10
262.94
 20
227.96
 10
262.93
 20
227.96
 10
262.91
 20
227.96
 10
262.9
 20
227.95
 10
262.89
 20
227.95
 10
262.88
 20
227.94
 10
262.87
 20
227.93
 10
262.87
 20
227.92
 10
262.86
 20
227.91
 10
262.86
 20
227.9
 10
262.86
 20
227.89
 10
262.86
 20
227.88
 10
262.86
 20
227.87
 10
262.89
 20
227.71
 10
262.9
 20
227.66
 10
262.91
 20
227.6
 10
262.93
 20
227.5
 10
262.94
 20
227.45
 10
262.96
 20
227.4
 10
262.98
 20
227.35
 10
263.0
 20
227.3
 10
263.02
 20
227.25
  0
LWPOLYLINE
  5
AB00D
330
1F
100
AcDbEntity
  8
General_Feature_Line
100
AcDbPolyline
 90
     2
 43
0.0
 10
225.26
 20
201.68
 10
249.52
 20
220.28
  0
LWPOLYLINE
  5
AB00E
330
1F
100
AcDbEntity
  8
Network_Or_Polygon_Closing_Geometry_Link_Polygon_Closing_Link_Line
100
AcDbPolyline
 90
     2
 43
0.0
 10
219.94
 20
208.43
 10
224.14
 20
204.6
  0
LWPOLYLINE
  5
AB00F
330
1F
100
AcDbEntity
  8
General_Feature_Line
100
AcDbPolyline
 90
     2
 43
0.0
 10
225.66
 20
212.88
 10
219.94
 20
208.43
  0
LWPOLYLINE
  5
AB010
330
1F
100
AcDbEntity
  8
Network_Or_Polygon_Closing_Geometry_Link_Polygon_Closing_Link_Line
100
AcDbPolyline
 90
     2
 43
0.0
 10
224.61
 20
202.48
 10
224.14
 20
204.6
  0
LWPOLYLINE
  5
AB011
330
1F
100
AcDbEntity
  8
General_Feature_Line
100
AcDbPolyline
 90
     9
 43
0.0
 10
224.14
 20
204.6
 10
233.9
 20
212.08
 10
244.47
 20
219.05
 10
244.84
 20
219.22
 10
245.22
 20
219.38
 10
245.86
 20
219.61
 10
247.42
 20
219.97
 10
249.11
 20
220.28
 10
249.52
 20
220.28
  0
LWPOLYLINE
  5
AB012
330
1F
100
AcDbEntity
  8
General_Feature_Line
100
AcDbPolyline
 90
     2
 43
0.0
 10
225.26
 20
201.68
 10
224.61
 20
202.48
  0
LWPOLYLINE
  5
AB013
330
1F
100
AcDbEntity
  8
General_Feature_Line
100
AcDbPolyline
 90
     2
 43
0.0
 10
225.26
 20
201.68
 10
225.26
 20
201.67
  0
LWPOLYLINE
  5
AB014
330
1F
100
AcDbEntity
  8
Road_Or_Track_Public_Line
100
AcDbPolyline
 90
     2
 43
0.0
 10
98.18
 20
228.23
 10
77.36
 20
226.17
  0
LWPOLYLINE
  5
AB015
330
1F
100
AcDbEntity
  8
Road_Or_Track_Public_Line
100
AcDbPolyline
 90
    18
 43
0.0
 10
98.71
 20
222.48
 10
98.41
 20
222.63
 10
98.26
 20
222.73
 10
98.16
 20
222.78
 10
98.01
 20
222.83
 10
97.81
 20
222.93
 10
97.66
 20
222.98
 10
97.56
 20
223.03
 10
97.41
 20
223.08
 10
97.21
 20
223.13
 10
97.06
 20
223.13
 10
96.86
 20
223.18
 10
96.56
 20
223.23
 10
96.01
 20
223.28
 10
95.51
 20
223.33
 10
94.96
 20
223.28
 10
94.71
 20
223.23
 10
77.36
 20
221.62
  0
LWPOLYLINE
  5
AB016
330
1F
100
AcDbEntity
  8
Landform_Top_Of_Slope_Line
100
AcDbPolyline
 90
     8
 43
0.0
 10
78.12
 20
36.5
 10
85.81
 20
38.11
 10
94.44
 20
39.15
 10
103.08
 20
39.57
 10
108.48
 20
39.4
 10
115.68
 20
41.09
 10
134.37
 20
46.4
 10
150.48
 20
51.0
  0
LWPOLYLINE
  5
AB017
330
1F
100
AcDbEntity
  8
Landform_Top_Of_Slope_Line
100
AcDbPolyline
 90
     3
 43
0.0
 10
186.38
 20
48.52
 10
169.12
 20
39.96
 10
158.89
 20
34.98
  0
LWPOLYLINE
  5
AB018
330
1F
100
AcDbEntity
  8
Landform_Bottom_Of_Slope_Line
100
AcDbPolyline
 90
     7
 43
0.0
 10
149.49
 20
35.4
 10
158.9
 20
38.75
 10
165.95
 20
41.11
 10
173.39
 20
43.9
 10
183.31
 20
47.79
 10
186.15
 20
49.12
 10
186.38
 20
48.52
  0
LWPOLYLINE
  5
AB019
330
1F
100
AcDbEntity
  8
Landform_Bottom_Of_Slope_Line
100
AcDbPolyline
 90
     6
 43
0.0
 10
150.48
 20
51.0
 10
153.36
 20
47.11
 10
154.49
 20
46.66
 10
145.07
 20
43.34
 10
127.26
 20
38.66
 10
114.35
 20
34.98
  0
LWPOLYLINE
  5
AB01A
330
1F
100
AcDbEntity
  8
Rail_Standard_Gauge_Track_Line
100
AcDbPolyline
 90
    12
 43
0.0
 10
132.41
 20
35.18
 10
140.11
 20
37.58
 10
155.16
 20
42.63
 10
170.06
 20
48.23
 10
174.76
 20
50.08
 10
188.46
 20
55.88
 10
202.01
 20
62.03
 10
207.36
 20
64.63
 10
220.56
 20
71.33
 10
233.56
 20
78.53
 10
244.31
 20
84.83
 10
246.05
 20
85.93
  0
LWPOLYLINE
  5
AB01B
330
1F
100
AcDbEntity
  8
Building_Outline_Line
100
AcDbPolyline
 90
     3
 43
0.0
 10
80.26
 20
55.18
 10
77.75
 20
58.12
 10
77.36
 20
58.58
  0
LWPOLYLINE
  5
AB01C
330
1F
100
AcDbEntity
  8
Rail_Standard_Gauge_Track_Line
100
AcDbPolyline
 90
    38
 43
0.0
 10
152.31
 20
49.53
 10
156.71
 20
51.03
 10
159.46
 20
52.03
 10
162.16
 20
53.03
 10
164.81
 20
54.03
 10
167.51
 20
55.03
 10
170.61
 20
56.13
 10
173.71
 20
57.28
 10
176.61
 20
58.38
 10
179.51
 20
59.53
 10
182.91
 20
60.93
 10
186.31
 20
62.28
 10
188.81
 20
63.33
 10
191.31
 20
64.33
 10
192.76
 20
64.98
 10
194.31
 20
65.63
 10
196.41
 20
66.43
 10
199.01
 20
67.43
 10
201.26
 20
68.28
 10
203.31
 20
69.03
 10
203.46
 20
69.08
 10
205.31
 20
69.78
 10
207.21
 20
70.53
 10
208.91
 20
71.18
 10
210.56
 20
71.78
 10
214.56
 20
73.28
 10
216.11
 20
73.88
 10
217.66
 20
74.43
 10
219.71
 20
75.28
 10
221.76
 20
76.08
 10
226.36
 20
77.98
 10
230.46
 20
79.78
 10
232.56
 20
80.73
 10
234.61
 20
81.68
 10
236.81
 20
82.83
 10
239.01
 20
84.08
 10
242.26
 20
85.73
 10
245.38
 20
87.22
  0
LWPOLYLINE
  5
AB01D
330
1F
100
AcDbEntity
  8
General_Feature_Line
100
AcDbPolyline
 90
     2
 43
0.0
 10
242.84
 20
36.7
 10
245.22
 20
34.98
  0
LWPOLYLINE
  5
AB01E
330
1F
100
AcDbEntity
  8
General_Feature_Line
100
AcDbPolyline
 90
     2
 43
0.0
 10
248.9
 20
36.98
 10
250.41
 20
34.98
  0
LWPOLYLINE
  5
AB01F
330
1F
100
AcDbEntity
  8
General_Feature_Line
100
AcDbPolyline
 90
    26
 43
0.0
 10
270.86
 20
83.58
 10
256.56
 20
72.13
 10
256.06
 20
71.48
 10
255.61
 20
70.98
 10
255.16
 20
70.43
 10
254.81
 20
69.88
 10
254.41
 20
69.38
 10
253.91
 20
68.83
 10
253.46
 20
68.18
 10
252.36
 20
66.68
 10
251.21
 20
65.13
 10
249.91
 20
63.08
 10
248.61
 20
60.98
 10
247.31
 20
58.83
 10
246.11
 20
56.63
 10
245.26
 20
55.08
 10
244.46
 20
53.48
 10
244.37
 20
53.31
 10
243.91
 20
52.43
 10
242.86
 20
50.33
 10
242.41
 20
49.33
 10
241.86
 20
48.08
 10
241.31
 20
46.73
 10
240.41
 20
44.73
 10
239.61
 20
42.73
 10
239.01
 20
41.18
  0
LWPOLYLINE
  5
AB020
330
1F
100
AcDbEntity
  8
Network_Or_Polygon_Closing_Geometry_Link_Polygon_Closing_Link_Line
100
AcDbPolyline
 90
     2
 43
0.0
 10
247.72
 20
42.86
 10
251.64
 20
42.81
  0
LWPOLYLINE
  5
AB021
330
1F
100
AcDbEntity
  8
Building_Outline_Line
100
AcDbPolyline
 90
     2
 43
0.0
 10
257.06
 20
35.62
 10
251.64
 20
42.81
  0
LWPOLYLINE
  5
AB022
330
1F
100
AcDbEntity
  8
General_Feature_Line
100
AcDbPolyline
 90
     6
 43
0.0
 10
149.01
 20
81.87
 10
138.67
 20
78.22
 10
137.54
 20
78.76
 10
134.27
 20
88.09
 10
136.9
 20
91.34
 10
137.06
 20
91.54
  0
LWPOLYLINE
  5
AB023
330
1F
100
AcDbEntity
  8
General_Feature_Line
100
AcDbPolyline
 90
     2
 43
0.0
 10
133.64
 20
74.55
 10
134.53
 20
71.98
  0
LWPOLYLINE
  5
AB024
330
1F
100
AcDbEntity
  8
General_Feature_Line
100
AcDbPolyline
 90
     2
 43
0.0
 10
136.7
 20
75.64
 10
133.64
 20
74.55
  0
LWPOLYLINE
  5
AB025
330
1F
100
AcDbEntity
  8
General_Feature_Line
100
AcDbPolyline
 90
     3
 43
0.0
 10
136.7
 20
75.64
 10
134.69
 20
81.45
 10
131.6
 20
80.37
  0
LWPOLYLINE
  5
AB026
330
1F
100
AcDbEntity
  8
General_Feature_Line
100
AcDbPolyline
 90
     2
 43
0.0
 10
127.7
 20
76.85
 10
130.21
 20
69.69
  0
LWPOLYLINE
  5
AB027
330
1F
100
AcDbEntity
  8
General_Feature_Line
100
AcDbPolyline
 90
     7
 43
0.0
 10
142.32
 20
74.72
 10
141.93
 20
75.84
 10
142.86
 20
77.79
 10
146.86
 20
79.19
 10
151.73
 20
80.9
 10
153.08
 20
79.81
 10
153.23
 20
79.39
  0
LWPOLYLINE
  5
AB028
330
1F
100
AcDbEntity
  8
General_Feature_Line
100
AcDbPolyline
 90
     2
 43
0.0
 10
127.7
 20
76.85
 10
123.21
 20
75.27
  0
LWPOLYLINE
  5
AB029
330
1F
100
AcDbEntity
  8
General_Feature_Line
100
AcDbPolyline
 90
     2
 43
0.0
 10
123.21
 20
75.27
 10
118.72
 20
73.7
  0
LWPOLYLINE
  5
AB02A
330
1F
100
AcDbEntity
  8
General_Feature_Line
100
AcDbPolyline
 90
     2
 43
0.0
 10
118.72
 20
73.7
 10
114.24
 20
72.13
  0
LWPOLYLINE
  5
AB02B
330
1F
100
AcDbEntity
  8
General_Feature_Line
100
AcDbPolyline
 90
     2
 43
0.0
 10
114.24
 20
72.13
 10
109.77
 20
70.56
  0
LWPOLYLINE
  5
AB02C
330
1F
100
AcDbEntity
  8
General_Feature_Line
100
AcDbPolyline
 90
     3
 43
0.0
 10
109.77
 20
70.56
 10
106.56
 20
69.43
 10
105.45
 20
68.39
  0
LWPOLYLINE
  5
AB02D
330
1F
100
AcDbEntity
  8
General_Feature_Line
100
AcDbPolyline
 90
     4
 43
0.0
 10
105.45
 20
68.39
 10
99.8
 20
63.2
 10
99.61
 20
62.72
 10
99.69
 20
61.86
  0
LWPOLYLINE
  5
AB02E
330
1F
100
AcDbEntity
  8
Road_Or_Track_Public_Line
100
AcDbPolyline
 90
    13
 43
0.0
 10
90.6
 20
44.93
 10
91.38
 20
44.91
 10
99.23
 20
45.78
 10
100.14
 20
45.03
 10
101.07
 20
44.7
 10
101.61
 20
44.64
 10
101.89
 20
44.65
 10
102.07
 20
44.67
 10
106.32
 20
45.36
 10
106.96
 20
45.78
 10
107.4
 20
46.42
 10
107.56
 20
47.36
 10
107.54
 20
47.53
  0
LWPOLYLINE
  5
AB02F
330
1F
100
AcDbEntity
  8
Network_Or_Polygon_Closing_Geometry_Link_Polygon_Closing_Link_Line
100
AcDbPolyline
 90
     2
 43
0.0
 10
81.7
 20
38.35
 10
80.59
 20
43.82
  0
LWPOLYLINE
  5
AB030
330
1F
100
AcDbEntity
  8
Network_Or_Polygon_Closing_Geometry_Link_Polygon_Closing_Link_Line
100
AcDbPolyline
 90
     2
 43
0.0
 10
90.6
 20
44.93
 10
91.85
 20
39.89
  0
LWPOLYLINE
  5
AB031
330
1F
100
AcDbEntity
  8
Road_Or_Track_Public_Line
100
AcDbPolyline
 90
    15
 43
0.0
 10
128.8
 20
93.9
 10
128.39
 20
92.29
 10
127.97
 20
90.06
 10
127.2
 20
88.05
 10
126.01
 20
86.13
 10
124.38
 20
84.39
 10
122.23
 20
82.89
 10
120.37
 20
82.07
 10
117.31
 20
81.08
 10
115.8
 20
80.12
 10
114.99
 20
79.38
 10
112.23
 20
76.49
 10
110.3
 20
74.47
 10
110.18
 20
74.34
 10
105.62
 20
69.57
  0
LWPOLYLINE
  5
AB032
330
1F
100
AcDbEntity
  8
Road_Or_Track_Public_Line
100
AcDbPolyline
 90
     9
 43
0.0
 10
139.65
 20
56.69
 10
140.28
 20
57.08
 10
142.02
 20
58.58
 10
144.07
 20
60.63
 10
146.28
 20
62.26
 10
148.25
 20
63.32
 10
151.0
 20
64.37
 10
167.82
 20
70.23
 10
167.69
 20
70.59
  0
LWPOLYLINE
  5
AB033
330
1F
100
AcDbEntity
  8
Network_Or_Polygon_Closing_Geometry_Inferred_Property_Closing_Line
100
AcDbPolyline
 90
     2
 43
0.0
 10
112.35
 20
48.75
 10
111.26
 20
51.86
  0
LWPOLYLINE
  5
AB034
330
1F
100
AcDbEntity
  8
Network_Or_Polygon_Closing_Geometry_Link_Polygon_Closing_Link_Line
100
AcDbPolyline
 90
     2
 43
0.0
 10
106.63
 20
50.24
 10
107.54
 20
47.53
  0
LWPOLYLINE
  5
AB035
330
1F
100
AcDbEntity
  8
Road_Or_Track_Public_Line
100
AcDbPolyline
 90
     2
 43
0.0
 10
107.54
 20
47.53
 10
112.35
 20
48.75
  0
LWPOLYLINE
  5
AB036
330
1F
100
AcDbEntity
  8
Road_Or_Track_Public_Line
100
AcDbPolyline
 90
     2
 43
0.0
 10
112.35
 20
48.75
 10
116.98
 20
49.92
  0
LWPOLYLINE
  5
AB037
330
1F
100
AcDbEntity
  8
Network_Or_Polygon_Closing_Geometry_Inferred_Property_Closing_Line
100
AcDbPolyline
 90
     2
 43
0.0
 10
116.98
 20
49.92
 10
115.9
 20
53.01
  0
LWPOLYLINE
  5
AB038
330
1F
100
AcDbEntity
  8
Network_Or_Polygon_Closing_Geometry_Inferred_Property_Closing_Line
100
AcDbPolyline
 90
     2
 43
0.0
 10
121.61
 20
51.11
 10
120.24
 20
55.01
  0
LWPOLYLINE
  5
AB039
330
1F
100
AcDbEntity
  8
Road_Or_Track_Public_Line
100
AcDbPolyline
 90
     3
 43
0.0
 10
116.98
 20
49.92
 10
120.91
 20
50.92
 10
121.61
 20
51.11
  0
LWPOLYLINE
  5
AB03A
330
1F
100
AcDbEntity
  8
Network_Or_Polygon_Closing_Geometry_Inferred_Property_Closing_Line
100
AcDbPolyline
 90
     2
 43
0.0
 10
126.21
 20
52.39
 10
124.73
 20
56.59
  0
LWPOLYLINE
  5
AB03B
330
1F
100
AcDbEntity
  8
Road_Or_Track_Public_Line
100
AcDbPolyline
 90
     2
 43
0.0
 10
121.61
 20
51.11
 10
126.21
 20
52.39
  0
LWPOLYLINE
  5
AB03C
330
1F
100
AcDbEntity
  8
Network_Or_Polygon_Closing_Geometry_Inferred_Property_Closing_Line
100
AcDbPolyline
 90
     2
 43
0.0
 10
130.78
 20
53.67
 10
129.36
 20
57.73
  0
LWPOLYLINE
  5
AB03D
330
1F
100
AcDbEntity
  8
Road_Or_Track_Public_Line
100
AcDbPolyline
 90
     2
 43
0.0
 10
126.21
 20
52.39
 10
130.78
 20
53.67
  0
LWPOLYLINE
  5
AB03E
330
1F
100
AcDbEntity
  8
Network_Or_Polygon_Closing_Geometry_Inferred_Property_Closing_Line
100
AcDbPolyline
 90
     2
 43
0.0
 10
135.37
 20
54.95
 10
133.7
 20
59.73
  0
LWPOLYLINE
  5
AB03F
330
1F
100
AcDbEntity
  8
Road_Or_Track_Public_Line
100
AcDbPolyline
 90
     2
 43
0.0
 10
130.78
 20
53.67
 10
135.37
 20
54.95
  0
LWPOLYLINE
  5
AB040
330
1F
100
AcDbEntity
  8
Network_Or_Polygon_Closing_Geometry_Link_Polygon_Closing_Link_Line
100
AcDbPolyline
 90
     2
 43
0.0
 10
138.24
 20
60.72
 10
139.65
 20
56.69
  0
LWPOLYLINE
  5
AB041
330
1F
100
AcDbEntity
  8
Road_Or_Track_Public_Line
100
AcDbPolyline
 90
     4
 43
0.0
 10
135.37
 20
54.95
 10
136.59
 20
55.29
 10
138.76
 20
56.15
 10
139.65
 20
56.69
  0
LWPOLYLINE
  5
AB042
330
1F
100
AcDbEntity
  8
Building_Outline_Line
100
AcDbPolyline
 90
     2
 43
0.0
 10
111.26
 20
51.86
 10
106.63
 20
50.24
  0
LWPOLYLINE
  5
AB043
330
1F
100
AcDbEntity
  8
Building_Outline_Line
100
AcDbPolyline
 90
    10
 43
0.0
 10
167.47
 20
71.21
 10
157.06
 20
67.56
 10
156.83
 20
68.2
 10
151.67
 20
66.39
 10
151.97
 20
65.54
 10
146.24
 20
63.53
 10
145.92
 20
64.44
 10
143.65
 20
63.64
 10
143.97
 20
62.73
 10
138.24
 20
60.72
  0
LWPOLYLINE
  5
AB044
330
1F
100
AcDbEntity
  8
General_Feature_Line
100
AcDbPolyline
 90
   123
 43
0.0
 10
97.83
 20
56.42
 10
97.76
 20
56.53
 10
97.7
 20
56.62
 10
97.63
 20
56.71
 10
97.55
 20
56.8
 10
97.47
 20
56.88
 10
97.39
 20
56.96
 10
97.31
 20
57.04
 10
97.22
 20
57.11
 10
97.13
 20
57.18
 10
97.04
 20
57.25
 10
96.94
 20
57.31
 10
96.85
 20
57.37
 10
96.75
 20
57.43
 10
96.64
 20
57.48
 10
96.53
 20
57.52
 10
96.43
 20
57.56
 10
96.32
 20
57.6
 10
96.21
 20
57.63
 10
96.1
 20
57.66
 10
95.98
 20
57.68
 10
95.87
 20
57.7
 10
95.73
 20
57.72
 10
95.6
 20
57.73
 10
95.46
 20
57.74
 10
95.32
 20
57.73
 10
95.18
 20
57.73
 10
95.04
 20
57.72
 10
94.91
 20
57.71
 10
94.77
 20
57.7
 10
94.26
 20
57.66
 10
93.85
 20
57.61
 10
90.76
 20
54.9
 10
90.37
 20
54.42
 10
89.94
 20
53.84
 10
89.71
 20
53.51
 10
89.49
 20
53.18
 10
89.2
 20
52.69
 10
88.96
 20
52.21
 10
88.74
 20
51.72
 10
88.69
 20
51.61
 10
88.64
 20
51.49
 10
88.59
 20
51.37
 10
88.54
 20
51.26
 10
88.49
 20
51.14
 10
88.45
 20
51.02
 10
88.41
 20
50.9
 10
88.37
 20
50.76
 10
88.34
 20
50.44
 10
88.34
 20
50.13
 10
88.37
 20
49.61
 10
88.4
 20
49.28
 10
88.45
 20
48.95
 10
88.51
 20
48.59
 10
88.54
 20
48.44
 10
88.57
 20
48.29
 10
88.61
 20
48.14
 10
88.65
 20
48.0
 10
88.74
 20
47.72
 10
88.75
 20
47.69
 10
88.77
 20
47.65
 10
88.78
 20
47.62
 10
88.79
 20
47.58
 10
88.8
 20
47.55
 10
88.81
 20
47.52
 10
88.83
 20
47.48
 10
88.84
 20
47.45
 10
88.85
 20
47.41
 10
88.87
 20
47.38
 10
88.88
 20
47.35
 10
88.9
 20
47.32
 10
88.92
 20
47.29
 10
88.94
 20
47.26
 10
88.96
 20
47.23
 10
88.98
 20
47.21
 10
89.02
 20
47.17
 10
89.04
 20
47.14
 10
89.07
 20
47.12
 10
89.1
 20
47.1
 10
89.13
 20
47.08
 10
89.16
 20
47.07
 10
89.19
 20
47.05
 10
89.23
 20
47.03
 10
89.26
 20
47.02
 10
89.29
 20
47.01
 10
89.33
 20
47.0
 10
89.36
 20
46.99
 10
89.4
 20
46.98
 10
89.43
 20
46.97
 10
89.47
 20
46.97
 10
89.5
 20
46.96
 10
89.54
 20
46.96
 10
89.57
 20
46.96
 10
89.61
 20
46.96
 10
89.65
 20
46.96
 10
89.69
 20
46.97
 10
101.64
 20
48.62
 10
101.91
 20
48.73
 10
102.18
 20
48.84
 10
102.6
 20
49.05
 10
102.68
 20
49.1
 10
102.77
 20
49.15
 10
102.86
 20
49.19
 10
102.94
 20
49.24
 10
103.03
 20
49.29
 10
103.11
 20
49.34
 10
103.19
 20
49.39
 10
103.27
 20
49.45
 10
103.35
 20
49.5
 10
103.47
 20
49.62
 10
103.54
 20
49.69
 10
103.6
 20
49.77
 10
103.66
 20
49.84
 10
103.72
 20
49.92
 10
103.77
 20
50.01
 10
103.82
 20
50.09
 10
103.87
 20
50.17
 10
103.91
 20
50.26
 10
103.95
 20
50.35
 10
103.99
 20
50.44
 10
104.02
 20
50.53
 10
104.05
 20
50.64
 10
103.72
 20
51.58
  0
LWPOLYLINE
  5
AB045
330
1F
100
AcDbEntity
  8
Building_Outline_Line
100
AcDbPolyline
 90
     2
 43
0.0
 10
105.89
 20
52.34
 10
103.72
 20
51.58
  0
LWPOLYLINE
  5
AB046
330
1F
100
AcDbEntity
  8
General_Feature_Line
100
AcDbPolyline
 90
     3
 43
0.0
 10
186.47
 20
83.43
 10
188.8
 20
81.54
 10
191.72
 20
78.91
  0
LWPOLYLINE
  5
AB047
330
1F
100
AcDbEntity
  8
Building_Outline_Line
100
AcDbPolyline
 90
     4
 43
0.0
 10
185.72
 20
92.84
 10
178.76
 20
84.3
 10
183.82
 20
80.18
 10
186.47
 20
83.43
  0
LWPOLYLINE
  5
AB048
330
1F
100
AcDbEntity
  8
Building_Outline_Line
100
AcDbPolyline
 90
     3
 43
0.0
 10
134.56
 20
71.22
 10
134.32
 20
71.91
 10
134.53
 20
71.98
  0
LWPOLYLINE
  5
AB049
330
1F
100
AcDbEntity
  8
Building_Outline_Line
100
AcDbPolyline
 90
     4
 43
0.0
 10
103.48
 20
51.5
 10
93.21
 20
47.9
 10
91.06
 20
54.05
 10
97.83
 20
56.42
  0
LWPOLYLINE
  5
AB04A
330
1F
100
AcDbEntity
  8
Building_Outline_Line
100
AcDbPolyline
 90
     2
 43
0.0
 10
134.53
 20
71.98
 10
140.05
 20
73.92
  0
LWPOLYLINE
  5
AB04B
330
1F
100
AcDbEntity
  8
Building_Outline_Line
100
AcDbPolyline
 90
     4
 43
0.0
 10
142.32
 20
74.72
 10
147.76
 20
76.62
 10
147.5
 20
77.38
 10
153.23
 20
79.39
  0
LWPOLYLINE
  5
AB04C
330
1F
100
AcDbEntity
  8
Building_Outline_Line
100
AcDbPolyline
 90
     4
 43
0.0
 10
140.05
 20
73.92
 10
140.94
 20
71.37
 10
143.21
 20
72.16
 10
142.32
 20
74.72
  0
LWPOLYLINE
  5
AB04D
330
1F
100
AcDbEntity
  8
General_Feature_Line
100
AcDbPolyline
 90
     2
 43
0.0
 10
131.6
 20
80.37
 10
133.64
 20
74.55
  0
LWPOLYLINE
  5
AB04E
330
1F
100
AcDbEntity
  8
General_Feature_Line
100
AcDbPolyline
 90
     4
 43
0.0
 10
140.05
 20
73.92
 10
139.65
 20
75.04
 10
137.7
 20
75.98
 10
136.7
 20
75.64
  0
LWPOLYLINE
  5
AB04F
330
1F
100
AcDbEntity
  8
General_Feature_Line
100
AcDbPolyline
 90
     4
 43
0.0
 10
127.7
 20
76.85
 10
130.4
 20
77.79
 10
129.73
 20
79.71
 10
131.6
 20
80.37
  0
LWPOLYLINE
  5
AB050
330
1F
100
AcDbEntity
  8
Network_Or_Polygon_Closing_Geometry_Link_Polygon_Closing_Link_Line
100
AcDbPolyline
 90
     2
 43
0.0
 10
80.59
 20
43.82
 10
90.6
 20
44.93
  0
LWPOLYLINE
  5
AB051
330
1F
100
AcDbEntity
  8
Road_Or_Track_Public_Line
100
AcDbPolyline
 90
    13
 43
0.0
 10
105.62
 20
69.57
 10
103.92
 20
67.79
 10
100.71
 20
64.69
 10
98.67
 20
62.88
 10
89.23
 20
54.5
 10
88.4
 20
53.42
 10
87.68
 20
52.02
 10
87.2
 20
50.31
 10
87.13
 20
48.45
 10
87.53
 20
47.09
 10
88.22
 20
46.12
 10
89.37
 20
45.29
 10
90.6
 20
44.93
  0
LWPOLYLINE
  5
AB052
330
1F
100
AcDbEntity
  8
Building_Outline_Line
100
AcDbPolyline
 90
     2
 43
0.0
 10
101.17
 20
58.08
 10
100.61
 20
59.68
  0
LWPOLYLINE
  5
AB053
330
1F
100
AcDbEntity
  8
Road_Or_Track_Public_Line
100
AcDbPolyline
 90
     3
 43
0.0
 10
91.85
 20
39.89
 10
91.26
 20
39.83
 10
81.7
 20
38.35
  0
LWPOLYLINE
  5
AB054
330
1F
100
AcDbEntity
  8
General_Feature_Line
100
AcDbPolyline
 90
     3
 43
0.0
 10
99.69
 20
61.86
 10
100.47
 20
59.63
 10
100.61
 20
59.68
  0
LWPOLYLINE
  5
AB055
330
1F
100
AcDbEntity
  8
General_Feature_Line
100
AcDbPolyline
 90
     2
 43
0.0
 10
100.61
 20
59.68
 10
103.02
 20
60.53
  0
LWPOLYLINE
  5
AB056
330
1F
100
AcDbEntity
  8
Building_Outline_Line
100
AcDbPolyline
 90
     2
 43
0.0
 10
103.58
 20
58.92
 10
103.14
 20
60.2
  0
LWPOLYLINE
  5
AB057
330
1F
100
AcDbEntity
  8
General_Feature_Line
100
AcDbPolyline
 90
     4
 43
0.0
 10
153.9
 20
83.0
 10
153.02
 20
81.91
 10
151.78
 20
82.92
 10
149.01
 20
81.87
  0
LWPOLYLINE
  5
AB058
330
1F
100
AcDbEntity
  8
Network_Or_Polygon_Closing_Geometry_Link_Polygon_Closing_Link_Line
100
AcDbPolyline
 90
     2
 43
0.0
 10
81.7
 20
38.35
 10
81.71
 20
37.88
  0
LWPOLYLINE
  5
AB059
330
1F
100
AcDbEntity
  8
General_Feature_Line
100
AcDbPolyline
 90
     2
 43
0.0
 10
84.96
 20
64.33
 10
88.18
 20
60.44
  0
LWPOLYLINE
  5
AB05A
330
1F
100
AcDbEntity
  8
General_Feature_Line
100
AcDbPolyline
 90
     2
 43
0.0
 10
88.18
 20
60.44
 10
77.36
 20
51.18
  0
LWPOLYLINE
  5
AB05B
330
1F
100
AcDbEntity
  8
Rail_Standard_Gauge_Track_Line
100
AcDbPolyline
 90
     8
 43
0.0
 10
228.39
 20
77.33
 10
231.01
 20
78.48
 10
233.16
 20
79.43
 10
235.26
 20
80.38
 10
237.46
 20
81.58
 10
239.71
 20
82.78
 10
242.91
 20
84.43
 10
246.05
 20
85.93
  0
LWPOLYLINE
  5
AB05C
330
1F
100
AcDbEntity
  8
Rail_Standard_Gauge_Track_Line
100
AcDbPolyline
 90
     4
 43
0.0
 10
228.39
 20
77.33
 10
232.86
 20
79.78
 10
243.56
 20
86.08
 10
245.38
 20
87.22
  0
LWPOLYLINE
  5
AB05D
330
1F
100
AcDbEntity
  8
Rail_Buffer_Line
100
AcDbPolyline
 90
     2
 43
0.0
 10
153.94
 20
50.09
 10
154.4
 20
48.74
  0
LWPOLYLINE
  5
AB05E
330
1F
100
AcDbEntity
  8
General_Feature_Line
100
AcDbPolyline
 90
     2
 43
0.0
 10
78.97
 20
37.35
 10
81.71
 20
37.88
  0
LWPOLYLINE
  5
AB05F
330
1F
100
AcDbEntity
  8
Road_Or_Track_Public_Line
100
AcDbPolyline
 90
     2
 43
0.0
 10
77.8
 20
43.53
 10
80.59
 20
43.82
  0
LWPOLYLINE
  5
AB060
330
1F
100
AcDbEntity
  8
Road_Or_Track_Public_Line
100
AcDbPolyline
 90
     2
 43
0.0
 10
78.85
 20
37.94
 10
81.7
 20
38.35
  0
LWPOLYLINE
  5
AB061
330
1F
100
AcDbEntity
  8
Road_Or_Track_Public_Line
100
AcDbPolyline
 90
     7
 43
0.0
 10
204.57
 20
83.41
 10
206.11
 20
79.03
 10
207.29
 20
79.9
 10
208.26
 20
81.16
 10
208.77
 20
82.32
 10
209.05
 20
84.29
 10
208.99
 20
84.96
  0
LWPOLYLINE
  5
AB062
330
1F
100
AcDbEntity
  8
Building_Outline_Line
100
AcDbPolyline
 90
     2
 43
0.0
 10
202.95
 20
82.84
 10
204.57
 20
83.41
  0
LWPOLYLINE
  5
AB063
330
1F
100
AcDbEntity
  8
Road_Or_Track_Public_Line
100
AcDbPolyline
 90
     4
 43
0.0
 10
80.59
 20
43.82
 10
81.8
 20
44.82
 10
82.7
 20
46.1
 10
82.71
 20
46.13
  0
LWPOLYLINE
  5
AB064
330
1F
100
AcDbEntity
  8
General_Feature_Line
100
AcDbPolyline
 90
     2
 43
0.0
 10
233.81
 20
41.35
 10
237.4
 20
34.98
  0
LWPOLYLINE
  5
AB065
330
1F
100
AcDbEntity
  8
Road_Or_Track_Public_Line
100
AcDbPolyline
 90
     2
 43
0.0
 10
194.46
 20
220.78
 10
189.86
 20
227.04
  0
LWPOLYLINE
  5
AB066
330
1F
100
AcDbEntity
  8
Network_Or_Polygon_Closing_Geometry_Link_Polygon_Closing_Link_Line
100
AcDbPolyline
 90
     2
 43
0.0
 10
189.86
 20
227.04
 10
199.96
 20
231.0
  0
LWPOLYLINE
  5
AB067
330
1F
100
AcDbEntity
  8
General_Feature_Line
100
AcDbPolyline
 90
     2
 43
0.0
 10
242.84
 20
36.7
 10
247.72
 20
42.86
  0
LWPOLYLINE
  5
AB068
330
1F
100
AcDbEntity
  8
General_Feature_Line
100
AcDbPolyline
 90
    36
 43
0.0
 10
152.11
 20
51.18
 10
161.81
 20
54.33
 10
162.66
 20
54.58
 10
163.46
 20
54.88
 10
164.11
 20
55.13
 10
164.81
 20
55.43
 10
165.66
 20
55.73
 10
166.56
 20
56.03
 10
176.01
 20
59.58
 10
176.86
 20
59.93
 10
177.71
 20
60.23
 10
178.51
 20
60.53
 10
179.31
 20
60.78
 10
180.36
 20
61.13
 10
185.01
 20
63.03
 10
196.96
 20
67.73
 10
209.61
 20
72.68
 10
211.11
 20
73.28
 10
212.56
 20
73.83
 10
214.11
 20
74.48
 10
215.66
 20
75.08
 10
217.61
 20
75.88
 10
219.61
 20
76.78
 10
221.66
 20
77.63
 10
223.66
 20
78.53
 10
227.66
 20
80.23
 10
229.81
 20
81.28
 10
232.01
 20
82.33
 10
233.46
 20
83.08
 10
234.91
 20
83.73
 10
237.41
 20
84.93
 10
238.41
 20
85.48
 10
239.46
 20
85.93
 10
240.66
 20
86.53
 10
247.56
 20
90.88
 10
262.71
 20
100.16
  0
LWPOLYLINE
  5
AB069
330
1F
100
AcDbEntity
  8
Building_Outline_Line
100
AcDbPolyline
 90
     2
 43
0.0
 10
270.86
 20
83.58
 10
277.36
 20
88.73
  0
LWPOLYLINE
  5
AB06A
330
1F
100
AcDbEntity
  8
Road_Or_Track_Public_Line
100
AcDbPolyline
 90
    11
 43
0.0
 10
274.66
 20
119.38
 10
270.76
 20
124.23
 10
267.31
 20
128.68
 10
264.96
 20
131.48
 10
261.71
 20
135.63
 10
259.66
 20
138.23
 10
257.11
 20
141.33
 10
255.86
 20
143.08
 10
202.24
 20
210.56
 10
198.56
 20
215.18
 10
194.46
 20
220.78
  0
LWPOLYLINE
  5
AB06B
330
1F
100
AcDbEntity
  8
General_Feature_Line
100
AcDbPolyline
 90
     3
 43
0.0
 10
270.32
 20
93.29
 10
272.01
 20
94.28
 10
277.36
 20
97.53
  0
LWPOLYLINE
  5
AB06C
330
1F
100
AcDbEntity
  8
Building_Outline_Line
100
AcDbPolyline
 90
     3
 43
0.0
 10
263.58
 20
116.05
 10
260.39
 20
113.5
 10
260.36
 20
113.48
  0
LWPOLYLINE
  5
AB06D
330
1F
100
AcDbEntity
  8
Rail_Standard_Gauge_Track_Line
100
AcDbPolyline
 90
    32
 43
0.0
 10
152.76
 20
48.18
 10
157.16
 20
49.68
 10
162.66
 20
51.68
 10
165.36
 20
52.68
 10
168.01
 20
53.68
 10
171.11
 20
54.83
 10
174.21
 20
55.93
 10
177.11
 20
57.08
 10
180.01
 20
58.18
 10
183.46
 20
59.58
 10
186.86
 20
60.98
 10
189.36
 20
61.98
 10
191.86
 20
63.03
 10
193.36
 20
63.68
 10
194.86
 20
64.28
 10
195.91
 20
64.68
 10
196.91
 20
65.08
 10
198.21
 20
65.58
 10
199.56
 20
66.13
 10
205.86
 20
68.48
 10
207.71
 20
69.18
 10
209.41
 20
69.83
 10
211.06
 20
70.43
 10
213.06
 20
71.18
 10
215.11
 20
71.93
 10
216.61
 20
72.53
 10
218.16
 20
73.13
 10
220.21
 20
73.93
 10
222.31
 20
74.73
 10
224.61
 20
75.68
 10
226.91
 20
76.68
 10
228.39
 20
77.33
  0
LWPOLYLINE
  5
AB06E
330
1F
100
AcDbEntity
  8
Rail_Standard_Gauge_Track_Line
100
AcDbPolyline
 90
    10
 43
0.0
 10
132.06
 20
36.58
 10
139.71
 20
38.98
 10
154.76
 20
44.03
 10
169.56
 20
49.58
 10
174.21
 20
51.43
 10
187.91
 20
57.18
 10
201.41
 20
63.33
 10
206.76
 20
65.93
 10
219.91
 20
72.68
 10
228.39
 20
77.33
  0
LWPOLYLINE
  5
AB06F
330
1F
100
AcDbEntity
  8
General_Feature_Line
100
AcDbPolyline
 90
     3
 43
0.0
 10
200.06
 20
54.29
 10
198.31
 20
53.43
 10
191.13
 20
49.95
  0
LWPOLYLINE
  5
AB070
330
1F
100
AcDbEntity
  8
General_Feature_Line
100
AcDbPolyline
 90
     2
 43
0.0
 10
80.23
 20
60.33
 10
80.57
 20
59.94
  0
LWPOLYLINE
  5
AB071
330
1F
100
AcDbEntity
  8
General_Feature_Line
100
AcDbPolyline
 90
     5
 43
0.0
 10
117.96
 20
35.33
 10
120.81
 20
36.13
 10
123.71
 20
37.03
 10
125.66
 20
37.53
 10
127.81
 20
38.13
  0
LWPOLYLINE
  5
AB072
330
1F
100
AcDbEntity
  8
General_Feature_Line
100
AcDbPolyline
 90
     3
 43
0.0
 10
125.08
 20
129.99
 10
116.71
 20
139.68
 10
114.89
 20
141.81
  0
LWPOLYLINE
  5
AB073
330
1F
100
AcDbEntity
  8
General_Feature_Line
100
AcDbPolyline
 90
     2
 43
0.0
 10
106.41
 20
134.57
 10
107.3
 20
133.53
  0
LWPOLYLINE
  5
AB074
330
1F
100
AcDbEntity
  8
Building_Outline_Line
100
AcDbPolyline
 90
     2
 43
0.0
 10
110.73
 20
138.35
 10
114.89
 20
141.81
  0
LWPOLYLINE
  5
AB075
330
1F
100
AcDbEntity
  8
General_Feature_Line
100
AcDbPolyline
 90
     3
 43
0.0
 10
82.35
 20
128.24
 10
85.91
 20
131.23
 10
86.72
 20
130.28
  0
LWPOLYLINE
  5
AB076
330
1F
100
AcDbEntity
  8
Building_Outline_Line
100
AcDbPolyline
 90
     2
 43
0.0
 10
100.18
 20
129.3
 10
102.1
 20
130.93
  0
LWPOLYLINE
  5
AB077
330
1F
100
AcDbEntity
  8
General_Feature_Line
100
AcDbPolyline
 90
     2
 43
0.0
 10
102.88
 20
130.05
 10
104.99
 20
131.81
  0
LWPOLYLINE
  5
AB078
330
1F
100
AcDbEntity
  8
Building_Outline_Line
100
AcDbPolyline
 90
     2
 43
0.0
 10
102.1
 20
130.93
 10
104.22
 20
132.72
  0
LWPOLYLINE
  5
AB079
330
1F
100
AcDbEntity
  8
General_Feature_Line
100
AcDbPolyline
 90
     2
 43
0.0
 10
99.51
 20
142.56
 10
100.28
 20
141.67
  0
LWPOLYLINE
  5
AB07A
330
1F
100
AcDbEntity
  8
General_Feature_Line
100
AcDbPolyline
 90
     2
 43
0.0
 10
107.3
 20
133.53
 10
108.29
 20
132.4
  0
LWPOLYLINE
  5
AB07B
330
1F
100
AcDbEntity
  8
Building_Outline_Line
100
AcDbPolyline
 90
     2
 43
0.0
 10
91.86
 20
134.6
 10
96.01
 20
138.08
  0
LWPOLYLINE
  5
AB07C
330
1F
100
AcDbEntity
  8
Building_Outline_Line
100
AcDbPolyline
 90
     2
 43
0.0
 10
87.97
 20
131.33
 10
91.86
 20
134.6
  0
LWPOLYLINE
  5
AB07D
330
1F
100
AcDbEntity
  8
Road_Or_Track_Public_Line
100
AcDbPolyline
 90
    13
 43
0.0
 10
122.76
 20
171.23
 10
122.71
 20
170.93
 10
122.61
 20
170.63
 10
122.41
 20
170.23
 10
122.31
 20
170.18
 10
122.26
 20
170.08
 10
122.16
 20
169.98
 10
122.06
 20
169.93
 10
122.01
 20
169.83
 10
121.91
 20
169.78
 10
89.21
 20
143.08
 10
79.26
 20
134.93
 10
77.36
 20
133.36
  0
LWPOLYLINE
  5
AB07E
330
1F
100
AcDbEntity
  8
General_Feature_Line
100
AcDbPolyline
 90
     4
 43
0.0
 10
88.18
 20
60.44
 10
88.71
 20
60.93
 10
92.66
 20
64.73
 10
94.87
 20
66.8
  0
LWPOLYLINE
  5
AB07F
330
1F
100
AcDbEntity
  8
General_Feature_Line
100
AcDbPolyline
 90
     2
 43
0.0
 10
121.06
 20
126.44
 10
128.09
 20
118.33
  0
LWPOLYLINE
  5
AB080
330
1F
100
AcDbEntity
  8
General_Feature_Line
100
AcDbPolyline
 90
     6
 43
0.0
 10
97.01
 20
77.23
 10
100.6
 20
80.9
 10
101.31
 20
81.63
 10
104.67
 20
85.18
 10
108.75
 20
89.48
 10
112.48
 20
93.41
  0
LWPOLYLINE
  5
AB081
330
1F
100
AcDbEntity
  8
Building_Outline_Line
100
AcDbPolyline
 90
     2
 43
0.0
 10
112.48
 20
93.41
 10
109.54
 20
96.75
  0
LWPOLYLINE
  5
AB082
330
1F
100
AcDbEntity
  8
General_Feature_Line
100
AcDbPolyline
 90
     2
 43
0.0
 10
82.26
 20
111.46
 10
104.31
 20
85.6
  0
LWPOLYLINE
  5
AB083
330
1F
100
AcDbEntity
  8
General_Feature_Line
100
AcDbPolyline
 90
     4
 43
0.0
 10
97.01
 20
77.23
 10
81.26
 20
95.58
 10
78.36
 20
98.93
 10
77.91
 20
99.43
  0
LWPOLYLINE
  5
AB084
330
1F
100
AcDbEntity
  8
General_Feature_Line
100
AcDbPolyline
 90
     3
 43
0.0
 10
81.12
 20
68.97
 10
82.0
 20
67.9
 10
84.96
 20
64.33
  0
LWPOLYLINE
  5
AB085
330
1F
100
AcDbEntity
  8
Building_Outline_Line
100
AcDbPolyline
 90
     2
 43
0.0
 10
120.16
 20
101.83
 10
112.48
 20
93.41
  0
LWPOLYLINE
  5
AB086
330
1F
100
AcDbEntity
  8
General_Feature_Line
100
AcDbPolyline
 90
    31
 43
0.0
 10
94.87
 20
66.8
 10
96.66
 20
68.48
 10
98.61
 20
70.33
 10
100.51
 20
72.23
 10
102.21
 20
73.88
 10
103.05
 20
74.74
 10
103.86
 20
75.58
 10
110.26
 20
81.88
 10
110.76
 20
82.33
 10
111.21
 20
82.83
 10
111.71
 20
83.43
 10
112.21
 20
83.98
 10
112.86
 20
84.63
 10
113.41
 20
85.28
 10
119.56
 20
91.98
 10
125.86
 20
98.88
 10
126.76
 20
99.88
 10
127.66
 20
100.78
 10
128.41
 20
101.68
 10
129.26
 20
102.53
 10
130.36
 20
103.88
 10
131.46
 20
105.18
 10
132.76
 20
106.68
 10
134.11
 20
108.23
 10
136.31
 20
110.93
 10
138.11
 20
113.13
 10
141.51
 20
117.38
 10
141.96
 20
117.93
 10
142.56
 20
118.93
 10
143.21
 20
119.88
 10
146.52
 20
124.55
  0
LWPOLYLINE
  5
AB087
330
1F
100
AcDbEntity
  8
General_Feature_Line
100
AcDbPolyline
 90
    21
 43
0.0
 10
94.87
 20
66.8
 10
94.56
 20
67.53
 10
94.36
 20
68.23
 10
94.31
 20
68.83
 10
94.36
 20
69.58
 10
94.56
 20
70.23
 10
94.86
 20
70.83
 10
95.21
 20
71.23
 10
96.36
 20
72.48
 10
99.46
 20
75.68
 10
103.71
 20
80.18
 10
106.96
 20
83.53
 10
107.56
 20
84.08
 10
108.36
 20
84.48
 10
108.81
 20
84.53
 10
109.16
 20
84.53
 10
109.41
 20
84.48
 10
111.01
 20
86.08
 10
115.41
 20
90.88
 10
119.81
 20
95.73
 10
122.69
 20
98.85
  0
LWPOLYLINE
  5
AB088
330
1F
100
AcDbEntity
  8
Building_Outline_Line
100
AcDbPolyline
 90
     2
 43
0.0
 10
78.76
 20
123.6
 10
83.17
 20
127.3
  0
LWPOLYLINE
  5
AB089
330
1F
100
AcDbEntity
  8
Building_Outline_Line
100
AcDbPolyline
 90
     2
 43
0.0
 10
111.73
 20
137.2
 10
110.73
 20
138.35
  0
LWPOLYLINE
  5
AB08A
330
1F
100
AcDbEntity
  8
General_Feature_Line
100
AcDbPolyline
 90
     6
 43
0.0
 10
109.54
 20
96.75
 10
108.94
 20
97.43
 10
108.36
 20
98.13
 10
99.44
 20
108.45
 10
90.79
 20
118.48
 10
90.39
 20
119.05
  0
LWPOLYLINE
  5
AB08B
330
1F
100
AcDbEntity
  8
General_Feature_Line
100
AcDbPolyline
 90
     2
 43
0.0
 10
139.41
 20
134.61
 10
142.44
 20
137.26
  0
LWPOLYLINE
  5
AB08C
330
1F
100
AcDbEntity
  8
General_Feature_Line
100
AcDbPolyline
 90
     6
 43
0.0
 10
262.71
 20
100.16
 10
263.41
 20
100.83
 10
267.41
 20
103.58
 10
270.91
 20
106.03
 10
273.96
 20
108.18
 10
277.36
 20
110.6
  0
LWPOLYLINE
  5
AB08D
330
1F
100
AcDbEntity
  8
General_Feature_Line
100
AcDbPolyline
 90
     4
 43
0.0
 10
136.29
 20
125.96
 10
139.66
 20
122.58
 10
135.36
 20
117.98
 10
132.23
 20
121.71
  0
LWPOLYLINE
  5
AB08E
330
1F
100
AcDbEntity
  8
General_Feature_Line
100
AcDbPolyline
 90
     3
 43
0.0
 10
272.06
 20
113.64
 10
272.46
 20
113.13
 10
273.07
 20
113.6
  0
LWPOLYLINE
  5
AB08F
330
1F
100
AcDbEntity
  8
General_Feature_Line
100
AcDbPolyline
 90
     3
 43
0.0
 10
273.07
 20
113.6
 10
273.71
 20
114.08
 10
274.26
 20
113.28
  0
LWPOLYLINE
  5
AB090
330
1F
100
AcDbEntity
  8
Building_Division_Line
100
AcDbPolyline
 90
     2
 43
0.0
 10
80.8
 20
113.08
 10
81.78
 20
111.91
  0
LWPOLYLINE
  5
AB091
330
1F
100
AcDbEntity
  8
General_Feature_Line
100
AcDbPolyline
 90
     3
 43
0.0
 10
104.11
 20
146.28
 10
100.14
 20
143.08
 10
99.51
 20
142.56
  0
LWPOLYLINE
  5
AB092
330
1F
100
AcDbEntity
  8
General_Feature_Line
100
AcDbPolyline
 90
     2
 43
0.0
 10
83.17
 20
127.3
 10
82.35
 20
128.24
  0
LWPOLYLINE
  5
AB093
330
1F
100
AcDbEntity
  8
Building_Outline_Line
100
AcDbPolyline
 90
     2
 43
0.0
 10
104.22
 20
132.72
 10
106.41
 20
134.57
  0
LWPOLYLINE
  5
AB094
330
1F
100
AcDbEntity
  8
General_Feature_Line
100
AcDbPolyline
 90
     2
 43
0.0
 10
78.24
 20
136.01
 10
77.36
 20
137.12
  0
LWPOLYLINE
  5
AB095
330
1F
100
AcDbEntity
  8
Building_Outline_Line
100
AcDbPolyline
 90
     2
 43
0.0
 10
123.86
 20
105.88
 10
118.31
 20
112.33
  0
LWPOLYLINE
  5
AB096
330
1F
100
AcDbEntity
  8
Building_Outline_Line
100
AcDbPolyline
 90
     2
 43
0.0
 10
81.78
 20
111.91
 10
82.26
 20
111.46
  0
LWPOLYLINE
  5
AB097
330
1F
100
AcDbEntity
  8
General_Feature_Line
100
AcDbPolyline
 90
     2
 43
0.0
 10
262.22
 20
111.14
 10
260.36
 20
113.48
  0
LWPOLYLINE
  5
AB098
330
1F
100
AcDbEntity
  8
Building_Division_Line
100
AcDbPolyline
 90
     2
 43
0.0
 10
90.39
 20
119.05
 10
83.17
 20
127.3
  0
LWPOLYLINE
  5
AB099
330
1F
100
AcDbEntity
  8
General_Feature_Line
100
AcDbPolyline
 90
     2
 43
0.0
 10
154.73
 20
135.01
 10
158.45
 20
139.71
  0
LWPOLYLINE
  5
AB09A
330
1F
100
AcDbEntity
  8
Building_Outline_Line
100
AcDbPolyline
 90
     2
 43
0.0
 10
85.93
 20
115.36
 10
81.78
 20
111.91
  0
LWPOLYLINE
  5
AB09B
330
1F
100
AcDbEntity
  8
Building_Outline_Line
100
AcDbPolyline
 90
     2
 43
0.0
 10
114.56
 20
108.43
 10
117.5
 20
104.96
  0
LWPOLYLINE
  5
AB09C
330
1F
100
AcDbEntity
  8
General_Feature_Line
100
AcDbPolyline
 90
     2
 43
0.0
 10
123.78
 20
114.58
 10
127.31
 20
110.58
  0
LWPOLYLINE
  5
AB09D
330
1F
100
AcDbEntity
  8
Building_Division_Line
100
AcDbPolyline
 90
     2
 43
0.0
 10
117.5
 20
104.96
 10
120.16
 20
101.83
  0
LWPOLYLINE
  5
AB09E
330
1F
100
AcDbEntity
  8
Building_Outline_Line
100
AcDbPolyline
 90
     2
 43
0.0
 10
90.39
 20
119.05
 10
85.93
 20
115.36
  0
LWPOLYLINE
  5
AB09F
330
1F
100
AcDbEntity
  8
Building_Outline_Line
100
AcDbPolyline
 90
     2
 43
0.0
 10
269.49
 20
120.76
 10
268.27
 20
119.78
  0
LWPOLYLINE
  5
AB0A0
330
1F
100
AcDbEntity
  8
Building_Outline_Line
100
AcDbPolyline
 90
     2
 43
0.0
 10
96.01
 20
138.08
 10
100.28
 20
141.67
  0
LWPOLYLINE
  5
AB0A1
330
1F
100
AcDbEntity
  8
Building_Outline_Line
100
AcDbPolyline
 90
     2
 43
0.0
 10
109.69
 20
135.5
 10
111.73
 20
137.2
  0
LWPOLYLINE
  5
AB0A2
330
1F
100
AcDbEntity
  8
Building_Outline_Line
100
AcDbPolyline
 90
     2
 43
0.0
 10
107.3
 20
133.53
 10
109.69
 20
135.5
  0
LWPOLYLINE
  5
AB0A3
330
1F
100
AcDbEntity
  8
General_Feature_Line
100
AcDbPolyline
 90
     2
 43
0.0
 10
125.08
 20
129.99
 10
121.06
 20
126.44
  0
LWPOLYLINE
  5
AB0A4
330
1F
100
AcDbEntity
  8
Building_Outline_Line
100
AcDbPolyline
 90
     2
 43
0.0
 10
86.72
 20
130.28
 10
87.97
 20
131.33
  0
LWPOLYLINE
  5
AB0A5
330
1F
100
AcDbEntity
  8
General_Feature_Line
100
AcDbPolyline
 90
     2
 43
0.0
 10
91.86
 20
134.6
 10
91.04
 20
135.54
  0
LWPOLYLINE
  5
AB0A6
330
1F
100
AcDbEntity
  8
General_Feature_Line
100
AcDbPolyline
 90
     4
 43
0.0
 10
82.46
 20
145.93
 10
83.51
 20
144.43
 10
84.36
 20
143.08
 10
85.02
 20
142.33
  0
LWPOLYLINE
  5
AB0A7
330
1F
100
AcDbEntity
  8
Building_Outline_Line
100
AcDbPolyline
 90
     2
 43
0.0
 10
147.21
 20
125.45
 10
140.03
 20
133.81
  0
LWPOLYLINE
  5
AB0A8
330
1F
100
AcDbEntity
  8
Building_Outline_Line
100
AcDbPolyline
 90
     3
 43
0.0
 10
140.03
 20
133.81
 10
143.06
 20
136.58
 10
142.44
 20
137.26
  0
LWPOLYLINE
  5
AB0A9
330
1F
100
AcDbEntity
  8
Building_Outline_Line
100
AcDbPolyline
 90
     4
 43
0.0
 10
81.46
 20
97.73
 10
84.26
 20
100.13
 10
82.45
 20
102.26
 10
77.93
 20
107.59
  0
LWPOLYLINE
  5
AB0AA
330
1F
100
AcDbEntity
  8
General_Feature_Line
100
AcDbPolyline
 90
     3
 43
0.0
 10
146.52
 20
124.55
 10
146.61
 20
124.68
 10
147.21
 20
125.45
  0
LWPOLYLINE
  5
AB0AB
330
1F
100
AcDbEntity
  8
Building_Outline_Line
100
AcDbPolyline
 90
     2
 43
0.0
 10
268.27
 20
119.78
 10
267.59
 20
119.25
  0
LWPOLYLINE
  5
AB0AC
330
1F
100
AcDbEntity
  8
General_Feature_Line
100
AcDbPolyline
 90
     2
 43
0.0
 10
267.59
 20
119.25
 10
270.24
 20
115.92
  0
LWPOLYLINE
  5
AB0AD
330
1F
100
AcDbEntity
  8
General_Feature_Line
100
AcDbPolyline
 90
     2
 43
0.0
 10
95.22
 20
139.0
 10
91.04
 20
135.54
  0
LWPOLYLINE
  5
AB0AE
330
1F
100
AcDbEntity
  8
General_Feature_Line
100
AcDbPolyline
 90
     6
 43
0.0
 10
272.06
 20
113.64
 10
269.91
 20
111.98
 10
269.63
 20
112.23
 10
268.44
 20
113.76
 10
268.01
 20
114.23
 10
270.24
 20
115.92
  0
LWPOLYLINE
  5
AB0AF
330
1F
100
AcDbEntity
  8
Building_Outline_Line
100
AcDbPolyline
 90
     2
 43
0.0
 10
77.91
 20
99.43
 10
77.36
 20
100.08
  0
LWPOLYLINE
  5
AB0B0
330
1F
100
AcDbEntity
  8
General_Feature_Line
100
AcDbPolyline
 90
     2
 43
0.0
 10
101.31
 20
127.96
 10
100.18
 20
129.3
  0
LWPOLYLINE
  5
AB0B1
330
1F
100
AcDbEntity
  8
General_Feature_Line
100
AcDbPolyline
 90
     2
 43
0.0
 10
123.71
 20
140.58
 10
124.26
 20
139.91
  0
LWPOLYLINE
  5
AB0B2
330
1F
100
AcDbEntity
  8
Building_Division_Line
100
AcDbPolyline
 90
     4
 43
0.0
 10
79.03
 20
123.26
 10
84.88
 20
116.55
 10
84.96
 20
116.46
 10
85.93
 20
115.36
  0
LWPOLYLINE
  5
AB0B3
330
1F
100
AcDbEntity
  8
Building_Division_Line
100
AcDbPolyline
 90
     2
 43
0.0
 10
98.03
 20
127.49
 10
91.86
 20
134.6
  0
LWPOLYLINE
  5
AB0B4
330
1F
100
AcDbEntity
  8
Building_Division_Line
100
AcDbPolyline
 90
     3
 43
0.0
 10
110.73
 20
138.35
 10
106.71
 20
143.08
 10
104.81
 20
145.44
  0
LWPOLYLINE
  5
AB0B5
330
1F
100
AcDbEntity
  8
General_Feature_Line
100
AcDbPolyline
 90
     2
 43
0.0
 10
99.12
 20
126.24
 10
101.31
 20
127.96
  0
LWPOLYLINE
  5
AB0B6
330
1F
100
AcDbEntity
  8
Building_Outline_Line
100
AcDbPolyline
 90
     2
 43
0.0
 10
98.03
 20
127.49
 10
100.18
 20
129.3
  0
LWPOLYLINE
  5
AB0B7
330
1F
100
AcDbEntity
  8
General_Feature_Line
100
AcDbPolyline
 90
     3
 43
0.0
 10
85.02
 20
142.33
 10
85.26
 20
142.01
 10
78.24
 20
136.01
  0
LWPOLYLINE
  5
AB0B8
330
1F
100
AcDbEntity
  8
General_Feature_Line
100
AcDbPolyline
 90
     2
 43
0.0
 10
274.26
 20
113.28
 10
274.98
 20
113.88
  0
LWPOLYLINE
  5
AB0B9
330
1F
100
AcDbEntity
  8
General_Feature_Line
100
AcDbPolyline
 90
     2
 43
0.0
 10
274.98
 20
113.88
 10
277.36
 20
110.9
  0
LWPOLYLINE
  5
AB0BA
330
1F
100
AcDbEntity
  8
General_Feature_Line
100
AcDbPolyline
 90
     2
 43
0.0
 10
136.29
 20
125.96
 10
132.04
 20
130.91
  0
LWPOLYLINE
  5
AB0BB
330
1F
100
AcDbEntity
  8
General_Feature_Line
100
AcDbPolyline
 90
     2
 43
0.0
 10
101.31
 20
127.96
 10
103.33
 20
129.55
  0
LWPOLYLINE
  5
AB0BC
330
1F
100
AcDbEntity
  8
General_Feature_Line
100
AcDbPolyline
 90
     2
 43
0.0
 10
114.56
 20
108.43
 10
101.36
 20
123.66
  0
LWPOLYLINE
  5
AB0BD
330
1F
100
AcDbEntity
  8
General_Feature_Line
100
AcDbPolyline
 90
     2
 43
0.0
 10
104.99
 20
131.81
 10
107.3
 20
133.53
  0
LWPOLYLINE
  5
AB0BE
330
1F
100
AcDbEntity
  8
General_Feature_Line
100
AcDbPolyline
 90
     3
 43
0.0
 10
85.02
 20
142.33
 10
85.96
 20
143.08
 10
86.24
 20
143.28
  0
LWPOLYLINE
  5
AB0BF
330
1F
100
AcDbEntity
  8
Building_Outline_Line
100
AcDbPolyline
 90
     5
 43
0.0
 10
86.24
 20
143.28
 10
86.36
 20
143.08
 10
86.66
 20
142.72
 10
87.06
 20
143.08
 10
96.59
 20
150.75
  0
LWPOLYLINE
  5
AB0C0
330
1F
100
AcDbEntity
  8
General_Feature_Line
100
AcDbPolyline
 90
     2
 43
0.0
 10
99.12
 20
126.24
 10
98.03
 20
127.49
  0
LWPOLYLINE
  5
AB0C1
330
1F
100
AcDbEntity
  8
General_Feature_Line
100
AcDbPolyline
 90
     2
 43
0.0
 10
102.88
 20
130.05
 10
102.1
 20
130.93
  0
LWPOLYLINE
  5
AB0C2
330
1F
100
AcDbEntity
  8
Building_Outline_Line
100
AcDbPolyline
 90
     2
 43
0.0
 10
120.16
 20
101.83
 10
123.86
 20
105.88
  0
LWPOLYLINE
  5
AB0C3
330
1F
100
AcDbEntity
  8
General_Feature_Line
100
AcDbPolyline
 90
     2
 43
0.0
 10
139.41
 20
134.61
 10
140.03
 20
133.81
  0
LWPOLYLINE
  5
AB0C4
330
1F
100
AcDbEntity
  8
Building_Outline_Line
100
AcDbPolyline
 90
     2
 43
0.0
 10
82.26
 20
111.46
 10
77.93
 20
107.59
  0
LWPOLYLINE
  5
AB0C5
330
1F
100
AcDbEntity
  8
General_Feature_Line
100
AcDbPolyline
 90
     2
 43
0.0
 10
132.23
 20
121.71
 10
136.29
 20
125.96
  0
LWPOLYLINE
  5
AB0C6
330
1F
100
AcDbEntity
  8
General_Feature_Line
100
AcDbPolyline
 90
     2
 43
0.0
 10
132.23
 20
121.71
 10
125.08
 20
129.99
  0
LWPOLYLINE
  5
AB0C7
330
1F
100
AcDbEntity
  8
General_Feature_Line
100
AcDbPolyline
 90
     2
 43
0.0
 10
103.33
 20
129.55
 10
102.88
 20
130.05
  0
LWPOLYLINE
  5
AB0C8
330
1F
100
AcDbEntity
  8
Building_Division_Line
100
AcDbPolyline
 90
     2
 43
0.0
 10
100.28
 20
141.67
 10
106.41
 20
134.57
  0
LWPOLYLINE
  5
AB0C9
330
1F
100
AcDbEntity
  8
General_Feature_Line
100
AcDbPolyline
 90
     2
 43
0.0
 10
108.29
 20
132.4
 10
123.78
 20
114.58
  0
LWPOLYLINE
  5
AB0CA
330
1F
100
AcDbEntity
  8
General_Feature_Line
100
AcDbPolyline
 90
    21
 43
0.0
 10
122.69
 20
98.85
 10
123.31
 20
99.53
 10
123.61
 20
99.88
 10
123.71
 20
100.78
 10
124.01
 20
101.63
 10
124.36
 20
102.13
 10
125.06
 20
102.88
 10
126.41
 20
104.43
 10
129.81
 20
108.03
 10
133.01
 20
111.38
 10
135.21
 20
113.73
 10
137.41
 20
116.13
 10
139.36
 20
118.13
 10
142.51
 20
121.28
 10
142.91
 20
122.18
 10
143.76
 20
123.63
 10
144.16
 20
124.28
 10
144.61
 20
124.63
 10
145.36
 20
124.73
 10
146.01
 20
124.58
 10
146.52
 20
124.55
  0
LWPOLYLINE
  5
AB0CB
330
1F
100
AcDbEntity
  8
Building_Division_Line
100
AcDbPolyline
 90
     3
 43
0.0
 10
96.01
 20
138.08
 10
102.06
 20
130.98
 10
102.1
 20
130.93
  0
LWPOLYLINE
  5
AB0CC
330
1F
100
AcDbEntity
  8
Building_Outline_Line
100
AcDbPolyline
 90
     2
 43
0.0
 10
118.31
 20
112.33
 10
114.56
 20
108.43
  0
LWPOLYLINE
  5
AB0CD
330
1F
100
AcDbEntity
  8
General_Feature_Line
100
AcDbPolyline
 90
     2
 43
0.0
 10
111.73
 20
137.2
 10
121.06
 20
126.44
  0
LWPOLYLINE
  5
AB0CE
330
1F
100
AcDbEntity
  8
Rail_Standard_Gauge_Track_Line
100
AcDbPolyline
 90
    11
 43
0.0
 10
153.06
 20
38.88
 10
155.36
 20
39.68
 10
171.61
 20
45.73
 10
187.56
 20
52.43
 10
203.26
 20
59.53
 10
216.26
 20
65.83
 10
233.56
 20
74.98
 10
250.46
 20
84.53
 10
266.81
 20
94.18
 10
276.51
 20
100.38
 10
277.36
 20
100.91
  0
LWPOLYLINE
  5
AB0CF
330
1F
100
AcDbEntity
  8
General_Feature_Line
100
AcDbPolyline
 90
    21
 43
0.0
 10
81.71
 20
37.88
 10
84.56
 20
38.28
 10
94.76
 20
39.78
 10
105.11
 20
40.28
 10
108.11
 20
40.08
 10
117.46
 20
42.18
 10
120.41
 20
43.08
 10
137.21
 20
47.78
 10
141.21
 20
48.98
 10
154.26
 20
52.58
 10
158.76
 20
54.13
 10
178.51
 20
61.23
 10
178.91
 20
61.38
 10
179.56
 20
61.63
 10
195.96
 20
68.03
 10
202.41
 20
70.58
 10
206.94
 20
72.18
 10
217.04
 20
76.07
 10
222.14
 20
78.14
 10
229.7
 20
81.29
 10
228.46
 20
83.58
  0
LWPOLYLINE
  5
AB0D0
330
1F
100
AcDbEntity
  8
Rail_Standard_Gauge_Track_Line
100
AcDbPolyline
 90
    14
 43
0.0
 10
137.66
 20
35.28
 10
152.66
 20
40.23
 10
154.96
 20
41.03
 10
171.11
 20
47.08
 10
187.01
 20
53.73
 10
202.71
 20
60.83
 10
215.61
 20
67.13
 10
232.86
 20
76.23
 10
249.76
 20
85.78
 10
266.06
 20
95.48
 10
275.66
 20
101.48
 10
276.36
 20
101.93
 10
276.96
 20
102.33
 10
277.36
 20
102.58
  0
LWPOLYLINE
  5
AB0D1
330
1F
100
AcDbEntity
  8
General_Feature_Line
100
AcDbPolyline
 90
    36
 43
0.0
 10
146.56
 20
34.98
 10
149.91
 20
36.03
 10
157.21
 20
38.53
 10
160.86
 20
39.83
 10
164.46
 20
41.08
 10
167.76
 20
42.23
 10
171.06
 20
43.43
 10
173.66
 20
44.33
 10
176.21
 20
45.33
 10
178.31
 20
46.18
 10
180.36
 20
46.98
 10
181.71
 20
47.53
 10
183.01
 20
48.13
 10
184.41
 20
48.68
 10
185.86
 20
49.23
 10
186.11
 20
49.38
 10
186.01
 20
50.03
 10
194.91
 20
54.23
 10
196.01
 20
54.73
 10
197.06
 20
55.28
 10
198.16
 20
55.78
 10
199.21
 20
56.28
 10
200.16
 20
56.63
 10
201.06
 20
57.03
 10
209.41
 20
60.78
 10
218.66
 20
65.68
 10
231.26
 20
72.43
 10
236.01
 20
74.93
 10
238.76
 20
76.43
 10
241.56
 20
77.98
 10
244.01
 20
79.43
 10
246.46
 20
80.83
 10
248.36
 20
81.93
 10
250.21
 20
83.08
 10
255.56
 20
86.13
 10
269.15
 20
94.09
  0
LWPOLYLINE
  5
AB0D2
330
1F
100
AcDbEntity
  8
Landform_Bottom_Of_Slope_Line
100
AcDbPolyline
 90
    12
 43
0.0
 10
232.16
 20
193.43
 10
232.46
 20
193.78
 10
234.21
 20
191.63
 10
237.51
 20
187.93
 10
241.41
 20
184.93
 10
244.86
 20
182.08
 10
254.41
 20
170.23
 10
254.11
 20
169.98
 10
261.16
 20
160.93
 10
261.61
 20
161.23
 10
275.86
 20
143.08
 10
277.36
 20
141.36
  0
LWPOLYLINE
  5
AB0D3
330
1F
100
AcDbEntity
  8
Building_Outline_Line
100
AcDbPolyline
 90
     3
 43
0.0
 10
123.71
 20
140.58
 10
121.56
 20
143.08
 10
113.51
 20
152.63
  0
LWPOLYLINE
  5
AB0D4
330
1F
100
AcDbEntity
  8
General_Feature_Line
100
AcDbPolyline
 90
     3
 43
0.0
 10
154.73
 20
135.01
 10
147.89
 20
143.08
 10
137.84
 20
155.13
  0
LWPOLYLINE
  5
AB0D5
330
1F
100
AcDbEntity
  8
General_Feature_Line
100
AcDbPolyline
 90
     2
 43
0.0
 10
99.51
 20
142.56
 10
95.22
 20
139.0
  0
LWPOLYLINE
  5
AB0D6
330
1F
100
AcDbEntity
  8
General_Feature_Line
100
AcDbPolyline
 90
     3
 43
0.0
 10
154.73
 20
135.01
 10
152.21
 20
131.83
 10
150.84
 20
130.05
  0
LWPOLYLINE
  5
AB0D7
330
1F
100
AcDbEntity
  8
General_Feature_Line
100
AcDbPolyline
 90
     2
 43
0.0
 10
77.94
 20
124.55
 10
82.35
 20
128.24
  0
LWPOLYLINE
  5
AB0D8
330
1F
100
AcDbEntity
  8
Building_Outline_Line
100
AcDbPolyline
 90
     2
 43
0.0
 10
83.17
 20
127.3
 10
86.72
 20
130.28
  0
LWPOLYLINE
  5
AB0D9
330
1F
100
AcDbEntity
  8
Building_Outline_Line
100
AcDbPolyline
 90
     2
 43
0.0
 10
147.21
 20
125.45
 10
150.84
 20
130.05
  0
LWPOLYLINE
  5
AB0DA
330
1F
100
AcDbEntity
  8
General_Feature_Line
100
AcDbPolyline
 90
     2
 43
0.0
 10
104.99
 20
131.81
 10
104.22
 20
132.72
  0
LWPOLYLINE
  5
AB0DB
330
1F
100
AcDbEntity
  8
Network_Or_Polygon_Closing_Geometry_Link_Polygon_Closing_Link_Line
100
AcDbPolyline
 90
     2
 43
0.0
 10
134.91
 20
184.23
 10
138.16
 20
187.23
  0
LWPOLYLINE
  5
AB0DC
330
1F
100
AcDbEntity
  8
General_Feature_Line
100
AcDbPolyline
 90
     2
 43
0.0
 10
116.16
 20
167.08
 10
117.31
 20
168.13
  0
LWPOLYLINE
  5
AB0DD
330
1F
100
AcDbEntity
  8
General_Feature_Line
100
AcDbPolyline
 90
     2
 43
0.0
 10
99.21
 20
178.13
 10
100.81
 20
178.83
  0
LWPOLYLINE
  5
AB0DE
330
1F
100
AcDbEntity
  8
Building_Outline_Line
100
AcDbPolyline
 90
     2
 43
0.0
 10
124.61
 20
161.38
 10
124.81
 20
161.18
  0
LWPOLYLINE
  5
AB0DF
330
1F
100
AcDbEntity
  8
Building_Division_Line
100
AcDbPolyline
 90
     2
 43
0.0
 10
102.96
 20
174.03
 10
103.36
 20
174.23
  0
LWPOLYLINE
  5
AB0E0
330
1F
100
AcDbEntity
  8
Building_Division_Line
100
AcDbPolyline
 90
     2
 43
0.0
 10
103.36
 20
174.23
 10
105.98
 20
168.34
  0
LWPOLYLINE
  5
AB0E1
330
1F
100
AcDbEntity
  8
General_Feature_Line
100
AcDbPolyline
 90
     2
 43
0.0
 10
142.31
 20
178.48
 10
143.36
 20
177.28
  0
LWPOLYLINE
  5
AB0E2
330
1F
100
AcDbEntity
  8
General_Feature_Line
100
AcDbPolyline
 90
     2
 43
0.0
 10
141.97
 20
159.65
 10
146.73
 20
163.65
  0
LWPOLYLINE
  5
AB0E3
330
1F
100
AcDbEntity
  8
Building_Outline_Line
100
AcDbPolyline
 90
     2
 43
0.0
 10
78.71
 20
155.58
 10
86.24
 20
143.28
  0
LWPOLYLINE
  5
AB0E4
330
1F
100
AcDbEntity
  8
General_Feature_Line
100
AcDbPolyline
 90
     2
 43
0.0
 10
94.41
 20
188.88
 10
96.01
 20
189.63
  0
LWPOLYLINE
  5
AB0E5
330
1F
100
AcDbEntity
  8
General_Feature_Line
100
AcDbPolyline
 90
     2
 43
0.0
 10
85.96
 20
187.19
 10
86.51
 20
187.45
  0
LWPOLYLINE
  5
AB0E6
330
1F
100
AcDbEntity
  8
General_Feature_Line
100
AcDbPolyline
 90
     2
 43
0.0
 10
98.76
 20
177.93
 10
99.21
 20
178.13
  0
LWPOLYLINE
  5
AB0E7
330
1F
100
AcDbEntity
  8
Building_Division_Line
100
AcDbPolyline
 90
     2
 43
0.0
 10
143.61
 20
177.03
 10
150.81
 20
168.33
  0
LWPOLYLINE
  5
AB0E8
330
1F
100
AcDbEntity
  8
Building_Outline_Line
100
AcDbPolyline
 90
     2
 43
0.0
 10
92.56
 20
162.08
 10
78.71
 20
155.58
  0
LWPOLYLINE
  5
AB0E9
330
1F
100
AcDbEntity
  8
General_Feature_Line
100
AcDbPolyline
 90
     2
 43
0.0
 10
108.05
 20
188.59
 10
112.01
 20
190.43
  0
LWPOLYLINE
  5
AB0EA
330
1F
100
AcDbEntity
  8
Building_Outline_Line
100
AcDbPolyline
 90
     2
 43
0.0
 10
141.97
 20
159.65
 10
142.56
 20
158.93
  0
LWPOLYLINE
  5
AB0EB
330
1F
100
AcDbEntity
  8
General_Feature_Line
100
AcDbPolyline
 90
     2
 43
0.0
 10
133.01
 20
170.68
 10
134.27
 20
169.07
  0
LWPOLYLINE
  5
AB0EC
330
1F
100
AcDbEntity
  8
General_Feature_Line
100
AcDbPolyline
 90
     2
 43
0.0
 10
142.31
 20
178.48
 10
137.61
 20
174.58
  0
LWPOLYLINE
  5
AB0ED
330
1F
100
AcDbEntity
  8
General_Feature_Line
100
AcDbPolyline
 90
     2
 43
0.0
 10
110.43
 20
183.34
 10
114.47
 20
185.18
  0
LWPOLYLINE
  5
AB0EE
330
1F
100
AcDbEntity
  8
Building_Outline_Line
100
AcDbPolyline
 90
     2
 43
0.0
 10
113.51
 20
152.63
 10
108.94
 20
148.85
  0
LWPOLYLINE
  5
AB0EF
330
1F
100
AcDbEntity
  8
General_Feature_Line
100
AcDbPolyline
 90
     2
 43
0.0
 10
117.31
 20
168.13
 10
115.26
 20
172.73
  0
LWPOLYLINE
  5
AB0F0
330
1F
100
AcDbEntity
  8
General_Feature_Line
100
AcDbPolyline
 90
     2
 43
0.0
 10
111.26
 20
177.88
 10
112.61
 20
178.48
  0
LWPOLYLINE
  5
AB0F1
330
1F
100
AcDbEntity
  8
Building_Outline_Line
100
AcDbPolyline
 90
     2
 43
0.0
 10
124.81
 20
161.18
 10
129.53
 20
165.11
  0
LWPOLYLINE
  5
AB0F2
330
1F
100
AcDbEntity
  8
Building_Outline_Line
100
AcDbPolyline
 90
     2
 43
0.0
 10
106.68
 20
187.96
 10
109.08
 20
182.72
  0
LWPOLYLINE
  5
AB0F3
330
1F
100
AcDbEntity
  8
General_Feature_Line
100
AcDbPolyline
 90
     2
 43
0.0
 10
128.31
 20
166.68
 10
123.56
 20
162.73
  0
LWPOLYLINE
  5
AB0F4
330
1F
100
AcDbEntity
  8
Building_Division_Line
100
AcDbPolyline
 90
     2
 43
0.0
 10
101.06
 20
178.98
 10
109.08
 20
182.72
  0
LWPOLYLINE
  5
AB0F5
330
1F
100
AcDbEntity
  8
Building_Outline_Line
100
AcDbPolyline
 90
     2
 43
0.0
 10
141.26
 20
160.53
 10
141.97
 20
159.65
  0
LWPOLYLINE
  5
AB0F6
330
1F
100
AcDbEntity
  8
Building_Outline_Line
100
AcDbPolyline
 90
     2
 43
0.0
 10
147.01
 20
163.33
 10
146.73
 20
163.65
  0
LWPOLYLINE
  5
AB0F7
330
1F
100
AcDbEntity
  8
General_Feature_Line
100
AcDbPolyline
 90
     2
 43
0.0
 10
96.81
 20
183.48
 10
98.7
 20
184.27
  0
LWPOLYLINE
  5
AB0F8
330
1F
100
AcDbEntity
  8
General_Feature_Line
100
AcDbPolyline
 90
     2
 43
0.0
 10
94.11
 20
188.73
 10
87.76
 20
185.83
  0
LWPOLYLINE
  5
AB0F9
330
1F
100
AcDbEntity
  8
General_Feature_Line
100
AcDbPolyline
 90
     2
 43
0.0
 10
87.76
 20
185.83
 10
90.11
 20
180.38
  0
LWPOLYLINE
  5
AB0FA
330
1F
100
AcDbEntity
  8
General_Feature_Line
100
AcDbPolyline
 90
     2
 43
0.0
 10
112.61
 20
178.48
 10
116.81
 20
180.28
  0
LWPOLYLINE
  5
AB0FB
330
1F
100
AcDbEntity
  8
General_Feature_Line
100
AcDbPolyline
 90
     2
 43
0.0
 10
109.08
 20
182.72
 10
110.43
 20
183.34
  0
LWPOLYLINE
  5
AB0FC
330
1F
100
AcDbEntity
  8
General_Feature_Line
100
AcDbPolyline
 90
     2
 43
0.0
 10
95.09
 20
182.68
 10
96.81
 20
183.48
  0
LWPOLYLINE
  5
AB0FD
330
1F
100
AcDbEntity
  8
Building_Outline_Line
100
AcDbPolyline
 90
     2
 43
0.0
 10
137.4
 20
155.66
 10
137.84
 20
155.13
  0
LWPOLYLINE
  5
AB0FE
330
1F
100
AcDbEntity
  8
General_Feature_Line
100
AcDbPolyline
 90
     2
 43
0.0
 10
97.41
 20
164.33
 10
97.67
 20
164.45
  0
LWPOLYLINE
  5
AB0FF
330
1F
100
AcDbEntity
  8
General_Feature_Line
100
AcDbPolyline
 90
     3
 43
0.0
 10
87.76
 20
185.83
 10
87.41
 20
185.63
 10
86.51
 20
187.45
  0
LWPOLYLINE
  5
AB100
330
1F
100
AcDbEntity
  8
General_Feature_Line
100
AcDbPolyline
 90
     2
 43
0.0
 10
78.71
 20
155.58
 10
77.36
 20
157.62
  0
LWPOLYLINE
  5
AB101
330
1F
100
AcDbEntity
  8
General_Feature_Line
100
AcDbPolyline
 90
     2
 43
0.0
 10
92.41
 20
174.98
 10
98.76
 20
177.93
  0
LWPOLYLINE
  5
AB102
330
1F
100
AcDbEntity
  8
General_Feature_Line
100
AcDbPolyline
 90
     3
 43
0.0
 10
123.56
 20
162.73
 10
118.61
 20
158.58
 10
119.71
 20
157.25
  0
LWPOLYLINE
  5
AB103
330
1F
100
AcDbEntity
  8
Building_Outline_Line
100
AcDbPolyline
 90
     2
 43
0.0
 10
96.01
 20
189.63
 10
96.26
 20
189.73
  0
LWPOLYLINE
  5
AB104
330
1F
100
AcDbEntity
  8
Building_Outline_Line
100
AcDbPolyline
 90
     2
 43
0.0
 10
136.56
 20
156.68
 10
137.4
 20
155.66
  0
LWPOLYLINE
  5
AB105
330
1F
100
AcDbEntity
  8
Building_Outline_Line
100
AcDbPolyline
 90
     3
 43
0.0
 10
105.98
 20
168.34
 10
107.66
 20
164.58
 10
106.05
 20
163.24
  0
LWPOLYLINE
  5
AB106
330
1F
100
AcDbEntity
  8
Building_Outline_Line
100
AcDbPolyline
 90
     2
 43
0.0
 10
108.94
 20
148.85
 10
104.81
 20
145.44
  0
LWPOLYLINE
  5
AB107
330
1F
100
AcDbEntity
  8
General_Feature_Line
100
AcDbPolyline
 90
     2
 43
0.0
 10
101.41
 20
173.33
 10
102.96
 20
174.03
  0
LWPOLYLINE
  5
AB108
330
1F
100
AcDbEntity
  8
Network_Or_Polygon_Closing_Geometry_Link_Polygon_Closing_Link_Line
100
AcDbPolyline
 90
     2
 43
0.0
 10
113.41
 20
155.08
 10
112.76
 20
153.43
  0
LWPOLYLINE
  5
AB109
330
1F
100
AcDbEntity
  8
Building_Outline_Line
100
AcDbPolyline
 90
     5
 43
0.0
 10
108.34
 20
160.4
 10
113.21
 20
164.43
 10
113.41
 20
165.43
 10
114.21
 20
165.38
 10
116.16
 20
167.08
  0
LWPOLYLINE
  5
AB10A
330
1F
100
AcDbEntity
  8
General_Feature_Line
100
AcDbPolyline
 90
     2
 43
0.0
 10
146.86
 20
182.38
 10
142.31
 20
178.48
  0
LWPOLYLINE
  5
AB10B
330
1F
100
AcDbEntity
  8
General_Feature_Line
100
AcDbPolyline
 90
     2
 43
0.0
 10
133.01
 20
170.68
 10
128.31
 20
166.68
  0
LWPOLYLINE
  5
AB10C
330
1F
100
AcDbEntity
  8
General_Feature_Line
100
AcDbPolyline
 90
     2
 43
0.0
 10
128.31
 20
166.68
 10
129.53
 20
165.11
  0
LWPOLYLINE
  5
AB10D
330
1F
100
AcDbEntity
  8
Building_Outline_Line
100
AcDbPolyline
 90
     2
 43
0.0
 10
138.91
 20
172.93
 10
138.56
 20
173.23
  0
LWPOLYLINE
  5
AB10E
330
1F
100
AcDbEntity
  8
General_Feature_Line
100
AcDbPolyline
 90
     2
 43
0.0
 10
112.61
 20
178.48
 10
110.43
 20
183.34
  0
LWPOLYLINE
  5
AB10F
330
1F
100
AcDbEntity
  8
General_Feature_Line
100
AcDbPolyline
 90
     2
 43
0.0
 10
108.16
 20
149.78
 10
104.11
 20
146.28
  0
LWPOLYLINE
  5
AB110
330
1F
100
AcDbEntity
  8
General_Feature_Line
100
AcDbPolyline
 90
     3
 43
0.0
 10
90.06
 20
173.86
 10
90.41
 20
173.13
 10
92.81
 20
174.23
  0
LWPOLYLINE
  5
AB111
330
1F
100
AcDbEntity
  8
General_Feature_Line
100
AcDbPolyline
 90
     2
 43
0.0
 10
90.06
 20
173.86
 10
92.41
 20
174.98
  0
LWPOLYLINE
  5
AB112
330
1F
100
AcDbEntity
  8
Building_Division_Line
100
AcDbPolyline
 90
     2
 43
0.0
 10
106.05
 20
163.24
 10
108.34
 20
160.4
  0
LWPOLYLINE
  5
AB113
330
1F
100
AcDbEntity
  8
Building_Outline_Line
100
AcDbPolyline
 90
     2
 43
0.0
 10
113.9
 20
172.07
 10
116.16
 20
167.08
  0
LWPOLYLINE
  5
AB114
330
1F
100
AcDbEntity
  8
Building_Outline_Line
100
AcDbPolyline
 90
     2
 43
0.0
 10
129.53
 20
165.11
 10
134.27
 20
169.07
  0
LWPOLYLINE
  5
AB115
330
1F
100
AcDbEntity
  8
General_Feature_Line
100
AcDbPolyline
 90
     2
 43
0.0
 10
137.4
 20
155.66
 10
140.26
 20
158.09
  0
LWPOLYLINE
  5
AB116
330
1F
100
AcDbEntity
  8
Building_Outline_Line
100
AcDbPolyline
 90
     2
 43
0.0
 10
119.71
 20
157.25
 10
128.81
 20
146.78
  0
LWPOLYLINE
  5
AB117
330
1F
100
AcDbEntity
  8
Building_Outline_Line
100
AcDbPolyline
 90
     2
 43
0.0
 10
135.21
 20
154.33
 10
134.56
 20
155.08
  0
LWPOLYLINE
  5
AB118
330
1F
100
AcDbEntity
  8
General_Feature_Line
100
AcDbPolyline
 90
     2
 43
0.0
 10
96.59
 20
150.75
 10
101.31
 20
154.58
  0
LWPOLYLINE
  5
AB119
330
1F
100
AcDbEntity
  8
Building_Outline_Line
100
AcDbPolyline
 90
     3
 43
0.0
 10
137.84
 20
155.13
 10
135.91
 20
153.53
 10
135.21
 20
154.33
  0
LWPOLYLINE
  5
AB11A
330
1F
100
AcDbEntity
  8
Building_Outline_Line
100
AcDbPolyline
 90
     2
 43
0.0
 10
143.36
 20
177.28
 10
143.61
 20
177.03
  0
LWPOLYLINE
  5
AB11B
330
1F
100
AcDbEntity
  8
Road_Or_Track_Public_Line
100
AcDbPolyline
 90
     2
 43
0.0
 10
132.03
 20
172.66
 10
126.0
 20
167.57
  0
LWPOLYLINE
  5
AB11C
330
1F
100
AcDbEntity
  8
General_Feature_Line
100
AcDbPolyline
 90
     3
 43
0.0
 10
116.81
 20
180.28
 10
114.61
 20
184.88
 10
114.47
 20
185.18
  0
LWPOLYLINE
  5
AB11D
330
1F
100
AcDbEntity
  8
Building_Outline_Line
100
AcDbPolyline
 90
     3
 43
0.0
 10
103.21
 20
160.88
 10
99.06
 20
157.43
 10
101.31
 20
154.58
  0
LWPOLYLINE
  5
AB11E
330
1F
100
AcDbEntity
  8
General_Feature_Line
100
AcDbPolyline
 90
     2
 43
0.0
 10
115.26
 20
172.73
 10
112.61
 20
178.48
  0
LWPOLYLINE
  5
AB11F
330
1F
100
AcDbEntity
  8
General_Feature_Line
100
AcDbPolyline
 90
     2
 43
0.0
 10
128.81
 20
146.78
 10
130.81
 20
144.47
  0
LWPOLYLINE
  5
AB120
330
1F
100
AcDbEntity
  8
Building_Outline_Line
100
AcDbPolyline
 90
     4
 43
0.0
 10
151.5
 20
167.5
 10
148.26
 20
164.83
 10
148.46
 20
164.53
 10
147.01
 20
163.33
  0
LWPOLYLINE
  5
AB121
330
1F
100
AcDbEntity
  8
General_Feature_Line
100
AcDbPolyline
 90
     3
 43
0.0
 10
158.07
 20
208.34
 10
158.01
 20
205.23
 10
138.16
 20
187.23
  0
LWPOLYLINE
  5
AB122
330
1F
100
AcDbEntity
  8
General_Feature_Line
100
AcDbPolyline
 90
     2
 43
0.0
 10
151.71
 20
186.48
 10
146.86
 20
182.38
  0
LWPOLYLINE
  5
AB123
330
1F
100
AcDbEntity
  8
Building_Division_Line
100
AcDbPolyline
 90
     2
 43
0.0
 10
153.02
 20
184.91
 10
160.36
 20
176.23
  0
LWPOLYLINE
  5
AB124
330
1F
100
AcDbEntity
  8
Road_Or_Track_Public_Line
100
AcDbPolyline
 90
     4
 43
0.0
 10
158.11
 20
234.13
 10
158.26
 20
233.88
 10
158.51
 20
231.33
 10
158.77
 20
229.0
  0
LWPOLYLINE
  5
AB125
330
1F
100
AcDbEntity
  8
General_Feature_Line
100
AcDbPolyline
 90
     2
 43
0.0
 10
158.11
 20
210.33
 10
158.07
 20
208.34
  0
LWPOLYLINE
  5
AB126
330
1F
100
AcDbEntity
  8
General_Feature_Line
100
AcDbPolyline
 90
     4
 43
0.0
 10
152.16
 20
226.23
 10
152.51
 20
226.38
 10
158.36
 20
227.03
 10
158.11
 20
210.33
  0
LWPOLYLINE
  5
AB127
330
1F
100
AcDbEntity
  8
Road_Or_Track_Public_Line
100
AcDbPolyline
 90
    26
 43
0.0
 10
178.86
 20
222.03
 10
172.11
 20
216.18
 10
170.66
 20
214.83
 10
170.36
 20
214.48
 10
170.06
 20
214.03
 10
169.96
 20
213.73
 10
169.86
 20
213.28
 10
169.86
 20
213.03
 10
169.91
 20
212.78
 10
170.01
 20
212.53
 10
170.16
 20
212.33
 10
170.26
 20
212.13
 10
170.36
 20
211.88
 10
170.41
 20
211.63
 10
170.36
 20
211.38
 10
170.36
 20
211.13
 10
170.26
 20
210.93
 10
170.11
 20
210.68
 10
169.81
 20
210.38
 10
169.61
 20
210.23
 10
169.41
 20
210.13
 10
169.06
 20
209.98
 10
168.81
 20
209.88
 10
168.21
 20
209.78
 10
167.71
 20
209.78
 10
167.41
 20
209.83
  0
LWPOLYLINE
  5
AB128
330
1F
100
AcDbEntity
  8
General_Feature_Line
100
AcDbPolyline
 90
     3
 43
0.0
 10
168.96
 20
231.68
 10
179.61
 20
222.53
 10
178.86
 20
222.03
  0
LWPOLYLINE
  5
AB129
330
1F
100
AcDbEntity
  8
Network_Or_Polygon_Closing_Geometry_Link_Polygon_Closing_Link_Line
100
AcDbPolyline
 90
     2
 43
0.0
 10
167.41
 20
209.83
 10
171.31
 20
205.23
  0
LWPOLYLINE
  5
AB12A
330
1F
100
AcDbEntity
  8
Road_Or_Track_Public_Line
100
AcDbPolyline
 90
    10
 43
0.0
 10
166.36
 20
200.18
 10
166.41
 20
199.98
 10
166.56
 20
199.68
 10
166.86
 20
199.38
 10
167.46
 20
199.33
 10
167.49
 20
199.35
 10
167.56
 20
199.38
 10
167.71
 20
199.43
 10
167.76
 20
199.53
 10
167.88
 20
199.66
  0
LWPOLYLINE
  5
AB12B
330
1F
100
AcDbEntity
  8
General_Feature_Line
100
AcDbPolyline
 90
     4
 43
0.0
 10
170.41
 20
180.48
 10
169.11
 20
179.38
 10
172.26
 20
175.68
 10
175.26
 20
178.23
  0
LWPOLYLINE
  5
AB12C
330
1F
100
AcDbEntity
  8
General_Feature_Line
100
AcDbPolyline
 90
     2
 43
0.0
 10
146.86
 20
182.38
 10
148.05
 20
180.75
  0
LWPOLYLINE
  5
AB12D
330
1F
100
AcDbEntity
  8
General_Feature_Line
100
AcDbPolyline
 90
     7
 43
0.0
 10
158.11
 20
210.33
 10
153.51
 20
221.28
 10
153.01
 20
222.38
 10
152.61
 20
223.63
 10
152.36
 20
224.38
 10
152.21
 20
225.18
 10
152.16
 20
226.23
  0
LWPOLYLINE
  5
AB12E
330
1F
100
AcDbEntity
  8
Building_Outline_Line
100
AcDbPolyline
 90
     4
 43
0.0
 10
161.07
 20
175.34
 10
161.91
 20
174.28
 10
160.06
 20
172.78
 10
159.24
 20
173.76
  0
LWPOLYLINE
  5
AB12F
330
1F
100
AcDbEntity
  8
Building_Outline_Line
100
AcDbPolyline
 90
     2
 43
0.0
 10
143.61
 20
177.03
 10
148.05
 20
180.75
  0
LWPOLYLINE
  5
AB130
330
1F
100
AcDbEntity
  8
Building_Outline_Line
100
AcDbPolyline
 90
     2
 43
0.0
 10
150.81
 20
168.33
 10
151.5
 20
167.5
  0
LWPOLYLINE
  5
AB131
330
1F
100
AcDbEntity
  8
Building_Outline_Line
100
AcDbPolyline
 90
     2
 43
0.0
 10
148.05
 20
180.75
 10
153.02
 20
184.91
  0
LWPOLYLINE
  5
AB132
330
1F
100
AcDbEntity
  8
General_Feature_Line
100
AcDbPolyline
 90
     2
 43
0.0
 10
161.76
 20
234.63
 10
162.01
 20
234.98
  0
LWPOLYLINE
  5
AB133
330
1F
100
AcDbEntity
  8
General_Feature_Line
100
AcDbPolyline
 90
     3
 43
0.0
 10
138.16
 20
187.23
 10
136.81
 20
188.83
 10
158.07
 20
208.34
  0
LWPOLYLINE
  5
AB134
330
1F
100
AcDbEntity
  8
General_Feature_Line
100
AcDbPolyline
 90
     2
 43
0.0
 10
156.21
 20
190.23
 10
157.4
 20
188.69
  0
LWPOLYLINE
  5
AB135
330
1F
100
AcDbEntity
  8
Building_Outline_Line
100
AcDbPolyline
 90
     2
 43
0.0
 10
169.66
 20
174.18
 10
160.31
 20
166.23
  0
LWPOLYLINE
  5
AB136
330
1F
100
AcDbEntity
  8
General_Feature_Line
100
AcDbPolyline
 90
     2
 43
0.0
 10
156.21
 20
190.23
 10
151.71
 20
186.48
  0
LWPOLYLINE
  5
AB137
330
1F
100
AcDbEntity
  8
Building_Division_Line
100
AcDbPolyline
 90
     2
 43
0.0
 10
174.8
 20
198.58
 10
171.48
 20
202.61
  0
LWPOLYLINE
  5
AB138
330
1F
100
AcDbEntity
  8
General_Feature_Line
100
AcDbPolyline
 90
     3
 43
0.0
 10
182.91
 20
181.93
 10
186.91
 20
177.23
 10
187.31
 20
176.74
  0
LWPOLYLINE
  5
AB139
330
1F
100
AcDbEntity
  8
General_Feature_Line
100
AcDbPolyline
 90
     2
 43
0.0
 10
138.56
 20
234.38
 10
138.52
 20
234.98
  0
LWPOLYLINE
  5
AB13A
330
1F
100
AcDbEntity
  8
Building_Division_Line
100
AcDbPolyline
 90
     2
 43
0.0
 10
138.91
 20
172.93
 10
146.06
 20
164.43
  0
LWPOLYLINE
  5
AB13B
330
1F
100
AcDbEntity
  8
Building_Outline_Line
100
AcDbPolyline
 90
     3
 43
0.0
 10
142.56
 20
158.93
 10
140.76
 20
157.48
 10
140.26
 20
158.09
  0
LWPOLYLINE
  5
AB13C
330
1F
100
AcDbEntity
  8
General_Feature_Line
100
AcDbPolyline
 90
     3
 43
0.0
 10
131.96
 20
233.68
 10
136.91
 20
234.18
 10
138.56
 20
234.38
  0
LWPOLYLINE
  5
AB13D
330
1F
100
AcDbEntity
  8
Road_Or_Track_Public_Line
100
AcDbPolyline
 90
    21
 43
0.0
 10
122.76
 20
171.23
 10
122.81
 20
171.68
 10
122.76
 20
171.93
 10
122.66
 20
172.23
 10
122.51
 20
172.53
 10
122.41
 20
172.63
 10
100.56
 20
220.58
 10
100.51
 20
220.68
 10
100.41
 20
220.73
 10
100.36
 20
220.83
 10
100.16
 20
221.13
 10
100.06
 20
221.23
 10
99.91
 20
221.43
 10
99.81
 20
221.53
 10
99.76
 20
221.63
 10
99.66
 20
221.68
 10
99.21
 20
222.13
 10
99.06
 20
222.23
 10
98.96
 20
222.28
 10
98.86
 20
222.38
 10
98.71
 20
222.48
  0
LWPOLYLINE
  5
AB13E
330
1F
100
AcDbEntity
  8
General_Feature_Line
100
AcDbPolyline
 90
     3
 43
0.0
 10
109.54
 20
195.82
 10
107.26
 20
200.78
 10
101.46
 20
213.58
  0
LWPOLYLINE
  5
AB13F
330
1F
100
AcDbEntity
  8
Building_Division_Line
100
AcDbPolyline
 90
     2
 43
0.0
 10
96.81
 20
209.78
 10
104.23
 20
193.39
  0
LWPOLYLINE
  5
AB140
330
1F
100
AcDbEntity
  8
General_Feature_Line
100
AcDbPolyline
 90
     2
 43
0.0
 10
100.06
 20
230.23
 10
111.21
 20
231.58
  0
LWPOLYLINE
  5
AB141
330
1F
100
AcDbEntity
  8
General_Feature_Line
100
AcDbPolyline
 90
     2
 43
0.0
 10
111.21
 20
231.58
 10
119.36
 20
232.43
  0
LWPOLYLINE
  5
AB142
330
1F
100
AcDbEntity
  8
General_Feature_Line
100
AcDbPolyline
 90
     2
 43
0.0
 10
125.61
 20
233.13
 10
125.45
 20
234.98
  0
LWPOLYLINE
  5
AB143
330
1F
100
AcDbEntity
  8
Building_Outline_Line
100
AcDbPolyline
 90
     2
 43
0.0
 10
100.01
 20
234.93
 10
100.01
 20
234.98
  0
LWPOLYLINE
  5
AB144
330
1F
100
AcDbEntity
  8
General_Feature_Line
100
AcDbPolyline
 90
     2
 43
0.0
 10
100.01
 20
234.93
 10
100.06
 20
230.23
  0
LWPOLYLINE
  5
AB145
330
1F
100
AcDbEntity
  8
General_Feature_Line
100
AcDbPolyline
 90
     2
 43
0.0
 10
119.36
 20
232.43
 10
119.15
 20
234.98
  0
LWPOLYLINE
  5
AB146
330
1F
100
AcDbEntity
  8
General_Feature_Line
100
AcDbPolyline
 90
     2
 43
0.0
 10
137.61
 20
174.58
 10
138.56
 20
173.23
  0
LWPOLYLINE
  5
AB147
330
1F
100
AcDbEntity
  8
General_Feature_Line
100
AcDbPolyline
 90
     2
 43
0.0
 10
96.81
 20
183.48
 10
99.21
 20
178.13
  0
LWPOLYLINE
  5
AB148
330
1F
100
AcDbEntity
  8
General_Feature_Line
100
AcDbPolyline
 90
     2
 43
0.0
 10
119.46
 20
174.53
 10
116.81
 20
180.28
  0
LWPOLYLINE
  5
AB149
330
1F
100
AcDbEntity
  8
Network_Or_Polygon_Closing_Geometry_Link_Polygon_Closing_Link_Line
100
AcDbPolyline
 90
     2
 43
0.0
 10
98.71
 20
222.48
 10
108.16
 20
221.83
  0
LWPOLYLINE
  5
AB14A
330
1F
100
AcDbEntity
  8
Building_Outline_Line
100
AcDbPolyline
 90
     2
 43
0.0
 10
104.23
 20
193.39
 10
106.68
 20
187.96
  0
LWPOLYLINE
  5
AB14B
330
1F
100
AcDbEntity
  8
Road_Or_Track_Public_Line
100
AcDbPolyline
 90
    18
 43
0.0
 10
108.16
 20
221.83
 10
108.26
 20
221.93
 10
108.36
 20
222.08
 10
108.46
 20
222.28
 10
108.56
 20
222.33
 10
108.61
 20
222.43
 10
108.86
 20
222.68
 10
108.96
 20
222.73
 10
109.06
 20
222.83
 10
109.16
 20
222.88
 10
109.26
 20
222.98
 10
109.76
 20
223.23
 10
110.21
 20
223.38
 10
110.41
 20
223.43
 10
110.71
 20
223.48
 10
110.91
 20
223.53
 10
158.81
 20
228.63
 10
158.77
 20
229.0
  0
LWPOLYLINE
  5
AB14C
330
1F
100
AcDbEntity
  8
General_Feature_Line
100
AcDbPolyline
 90
     2
 43
0.0
 10
115.26
 20
172.73
 10
119.46
 20
174.53
  0
LWPOLYLINE
  5
AB14D
330
1F
100
AcDbEntity
  8
Building_Outline_Line
100
AcDbPolyline
 90
     2
 43
0.0
 10
96.26
 20
189.73
 10
98.7
 20
184.27
  0
LWPOLYLINE
  5
AB14E
330
1F
100
AcDbEntity
  8
General_Feature_Line
100
AcDbPolyline
 90
    24
 43
0.0
 10
118.61
 20
198.63
 10
127.01
 20
180.53
 10
127.01
 20
180.38
 10
127.06
 20
180.23
 10
127.21
 20
179.93
 10
127.31
 20
179.88
 10
127.36
 20
179.78
 10
127.46
 20
179.73
 10
127.51
 20
179.63
 10
127.66
 20
179.58
 10
127.76
 20
179.48
 10
127.96
 20
179.38
 10
128.16
 20
179.38
 10
128.61
 20
179.33
 10
129.01
 20
179.43
 10
129.26
 20
179.48
 10
129.41
 20
179.53
 10
129.51
 20
179.58
 10
129.66
 20
179.63
 10
129.86
 20
179.73
 10
129.96
 20
179.83
 10
130.16
 20
179.93
 10
130.26
 20
180.03
 10
134.91
 20
184.23
  0
LWPOLYLINE
  5
AB14F
330
1F
100
AcDbEntity
  8
General_Feature_Line
100
AcDbPolyline
 90
     2
 43
0.0
 10
104.01
 20
167.43
 10
105.98
 20
168.34
  0
LWPOLYLINE
  5
AB150
330
1F
100
AcDbEntity
  8
General_Feature_Line
100
AcDbPolyline
 90
     2
 43
0.0
 10
101.96
 20
163.49
 10
103.21
 20
160.88
  0
LWPOLYLINE
  5
AB151
330
1F
100
AcDbEntity
  8
General_Feature_Line
100
AcDbPolyline
 90
    26
 43
0.0
 10
147.66
 20
225.88
 10
111.61
 20
222.03
 10
111.41
 20
222.03
 10
111.16
 20
221.98
 10
110.96
 20
221.93
 10
110.86
 20
221.88
 10
110.71
 20
221.83
 10
110.51
 20
221.73
 10
110.41
 20
221.63
 10
110.26
 20
221.58
 10
110.21
 20
221.48
 10
110.01
 20
221.38
 10
109.96
 20
221.28
 10
109.81
 20
221.13
 10
109.76
 20
221.03
 10
109.66
 20
220.93
 10
109.61
 20
220.78
 10
109.51
 20
220.68
 10
109.46
 20
220.58
 10
109.46
 20
220.18
 10
109.41
 20
219.93
 10
109.46
 20
219.38
 10
109.61
 20
218.78
 10
109.66
 20
218.68
 10
109.71
 20
218.53
 10
118.16
 20
199.98
  0
LWPOLYLINE
  5
AB152
330
1F
100
AcDbEntity
  8
Building_Division_Line
100
AcDbPolyline
 90
     2
 43
0.0
 10
105.98
 20
168.34
 10
113.9
 20
172.07
  0
LWPOLYLINE
  5
AB153
330
1F
100
AcDbEntity
  8
Building_Outline_Line
100
AcDbPolyline
 90
     2
 43
0.0
 10
146.06
 20
164.43
 10
141.26
 20
160.53
  0
LWPOLYLINE
  5
AB154
330
1F
100
AcDbEntity
  8
General_Feature_Line
100
AcDbPolyline
 90
     2
 43
0.0
 10
97.67
 20
164.45
 10
104.01
 20
167.43
  0
LWPOLYLINE
  5
AB155
330
1F
100
AcDbEntity
  8
Road_Or_Track_Public_Line
100
AcDbPolyline
 90
    15
 43
0.0
 10
126.0
 20
167.57
 10
118.36
 20
161.13
 10
117.76
 20
160.83
 10
117.71
 20
160.73
 10
117.61
 20
160.68
 10
117.56
 20
160.58
 10
117.46
 20
160.53
 10
117.41
 20
160.43
 10
117.31
 20
160.33
 10
117.26
 20
160.18
 10
117.16
 20
160.08
 10
117.11
 20
159.98
 10
117.01
 20
159.68
 10
117.01
 20
159.48
 10
116.96
 20
158.91
  0
LWPOLYLINE
  5
AB156
330
1F
100
AcDbEntity
  8
Building_Outline_Line
100
AcDbPolyline
 90
     2
 43
0.0
 10
106.05
 20
163.24
 10
103.21
 20
160.88
  0
LWPOLYLINE
  5
AB157
330
1F
100
AcDbEntity
  8
Building_Outline_Line
100
AcDbPolyline
 90
     2
 43
0.0
 10
256.12
 20
170.78
 10
262.67
 20
162.44
  0
LWPOLYLINE
  5
AB158
330
1F
100
AcDbEntity
  8
Building_Outline_Line
100
AcDbPolyline
 90
     2
 43
0.0
 10
274.81
 20
192.53
 10
252.66
 20
175.18
  0
LWPOLYLINE
  5
AB159
330
1F
100
AcDbEntity
  8
General_Feature_Line
100
AcDbPolyline
 90
     2
 43
0.0
 10
255.21
 20
170.08
 10
256.12
 20
170.78
  0
LWPOLYLINE
  5
AB15A
330
1F
100
AcDbEntity
  8
General_Feature_Line
100
AcDbPolyline
 90
     2
 43
0.0
 10
262.01
 20
161.78
 10
262.67
 20
162.44
  0
LWPOLYLINE
  5
AB15B
330
1F
100
AcDbEntity
  8
General_Feature_Line
100
AcDbPolyline
 90
     4
 43
0.0
 10
212.56
 20
188.13
 10
214.51
 20
189.73
 10
211.51
 20
193.53
 10
209.51
 20
192.03
  0
LWPOLYLINE
  5
AB15C
330
1F
100
AcDbEntity
  8
General_Feature_Line
100
AcDbPolyline
 90
     2
 43
0.0
 10
199.72
 20
186.79
 10
198.2
 20
185.55
  0
LWPOLYLINE
  5
AB15D
330
1F
100
AcDbEntity
  8
Building_Outline_Line
100
AcDbPolyline
 90
     2
 43
0.0
 10
195.51
 20
209.93
 10
193.14
 20
212.78
  0
LWPOLYLINE
  5
AB15E
330
1F
100
AcDbEntity
  8
Building_Outline_Line
100
AcDbPolyline
 90
     2
 43
0.0
 10
216.66
 20
182.93
 10
213.81
 20
186.48
  0
LWPOLYLINE
  5
AB15F
330
1F
100
AcDbEntity
  8
Building_Outline_Line
100
AcDbPolyline
 90
     2
 43
0.0
 10
217.16
 20
225.13
 10
216.71
 20
224.73
  0
LWPOLYLINE
  5
AB160
330
1F
100
AcDbEntity
  8
Building_Outline_Line
100
AcDbPolyline
 90
     2
 43
0.0
 10
200.66
 20
202.68
 10
199.41
 20
204.23
  0
LWPOLYLINE
  5
AB161
330
1F
100
AcDbEntity
  8
General_Feature_Line
100
AcDbPolyline
 90
     2
 43
0.0
 10
216.71
 20
224.73
 10
208.6
 20
234.98
  0
LWPOLYLINE
  5
AB162
330
1F
100
AcDbEntity
  8
Building_Outline_Line
100
AcDbPolyline
 90
     5
 43
0.0
 10
208.16
 20
176.08
 10
204.96
 20
180.13
 10
203.46
 20
179.03
 10
202.11
 20
180.83
 10
203.51
 20
181.98
  0
LWPOLYLINE
  5
AB163
330
1F
100
AcDbEntity
  8
General_Feature_Line
100
AcDbPolyline
 90
     4
 43
0.0
 10
221.01
 20
177.48
 10
223.01
 20
179.03
 10
219.91
 20
182.88
 10
217.91
 20
181.38
  0
LWPOLYLINE
  5
AB164
330
1F
100
AcDbEntity
  8
Building_Outline_Line
100
AcDbPolyline
 90
     3
 43
0.0
 10
196.11
 20
188.28
 10
194.91
 20
187.33
 10
192.81
 20
189.93
  0
LWPOLYLINE
  5
AB165
330
1F
100
AcDbEntity
  8
Building_Division_Line
100
AcDbPolyline
 90
     2
 43
0.0
 10
221.01
 20
177.48
 10
212.56
 20
170.53
  0
LWPOLYLINE
  5
AB166
330
1F
100
AcDbEntity
  8
Building_Outline_Line
100
AcDbPolyline
 90
     2
 43
0.0
 10
218.86
 20
158.13
 10
210.41
 20
168.73
  0
LWPOLYLINE
  5
AB167
330
1F
100
AcDbEntity
  8
Building_Outline_Line
100
AcDbPolyline
 90
     4
 43
0.0
 10
216.71
 20
224.73
 10
215.01
 20
223.38
 10
222.01
 20
214.53
 10
224.56
 20
216.56
  0
LWPOLYLINE
  5
AB168
330
1F
100
AcDbEntity
  8
General_Feature_Line
100
AcDbPolyline
 90
     2
 43
0.0
 10
247.91
 20
181.13
 10
244.11
 20
185.93
  0
LWPOLYLINE
  5
AB169
330
1F
100
AcDbEntity
  8
Building_Outline_Line
100
AcDbPolyline
 90
     2
 43
0.0
 10
199.41
 20
204.23
 10
196.31
 20
208.08
  0
LWPOLYLINE
  5
AB16A
330
1F
100
AcDbEntity
  8
Building_Division_Line
100
AcDbPolyline
 90
     2
 43
0.0
 10
199.72
 20
186.79
 10
207.96
 20
193.43
  0
LWPOLYLINE
  5
AB16B
330
1F
100
AcDbEntity
  8
Building_Outline_Line
100
AcDbPolyline
 90
     2
 43
0.0
 10
196.31
 20
208.08
 10
195.21
 20
209.68
  0
LWPOLYLINE
  5
AB16C
330
1F
100
AcDbEntity
  8
Building_Outline_Line
100
AcDbPolyline
 90
     4
 43
0.0
 10
206.66
 20
174.93
 10
209.51
 20
171.43
 10
210.91
 20
172.63
 10
212.56
 20
170.53
  0
LWPOLYLINE
  5
AB16D
330
1F
100
AcDbEntity
  8
General_Feature_Line
100
AcDbPolyline
 90
     4
 43
0.0
 10
208.21
 20
193.63
 10
210.21
 20
195.23
 10
207.06
 20
199.03
 10
204.91
 20
197.33
  0
LWPOLYLINE
  5
AB16E
330
1F
100
AcDbEntity
  8
General_Feature_Line
100
AcDbPolyline
 90
     3
 43
0.0
 10
212.56
 20
170.53
 10
211.26
 20
169.43
 10
210.41
 20
168.73
  0
LWPOLYLINE
  5
AB16F
330
1F
100
AcDbEntity
  8
General_Feature_Line
100
AcDbPolyline
 90
     2
 43
0.0
 10
195.51
 20
209.93
 10
197.31
 20
211.33
  0
LWPOLYLINE
  5
AB170
330
1F
100
AcDbEntity
  8
General_Feature_Line
100
AcDbPolyline
 90
     4
 43
0.0
 10
203.66
 20
198.83
 10
205.81
 20
200.68
 10
202.91
 20
204.33
 10
200.66
 20
202.68
  0
LWPOLYLINE
  5
AB171
330
1F
100
AcDbEntity
  8
Building_Outline_Line
100
AcDbPolyline
 90
     5
 43
0.0
 10
231.09
 20
158.62
 10
225.01
 20
153.83
 10
221.96
 20
157.73
 10
220.81
 20
156.88
 10
219.46
 20
158.43
  0
LWPOLYLINE
  5
AB172
330
1F
100
AcDbEntity
  8
General_Feature_Line
100
AcDbPolyline
 90
     3
 43
0.0
 10
224.31
 20
214.68
 10
218.41
 20
210.53
 10
219.51
 20
208.98
  0
LWPOLYLINE
  5
AB173
330
1F
100
AcDbEntity
  8
Road_Or_Track_Public_Line
100
AcDbPolyline
 90
    33
 43
0.0
 10
199.96
 20
231.0
 10
200.06
 20
230.28
 10
200.21
 20
229.53
 10
200.81
 20
227.73
 10
201.11
 20
227.03
 10
201.46
 20
226.33
 10
201.81
 20
225.68
 10
202.46
 20
224.73
 10
207.96
 20
216.23
 10
212.66
 20
209.33
 10
212.81
 20
209.03
 10
213.21
 20
208.53
 10
213.46
 20
208.33
 10
213.76
 20
208.13
 10
214.11
 20
207.93
 10
214.71
 20
207.73
 10
215.06
 20
207.68
 10
215.36
 20
207.63
 10
215.65
 20
207.59
 10
215.94
 20
207.56
 10
216.23
 20
207.54
 10
216.53
 20
207.54
 10
216.82
 20
207.55
 10
217.11
 20
207.57
 10
217.4
 20
207.6
 10
217.87
 20
207.67
 10
218.15
 20
207.74
 10
218.44
 20
207.81
 10
218.72
 20
207.9
 10
218.99
 20
207.99
 10
219.26
 20
208.1
 10
219.53
 20
208.22
 10
219.94
 20
208.43
  0
LWPOLYLINE
  5
AB174
330
1F
100
AcDbEntity
  8
General_Feature_Line
100
AcDbPolyline
 90
     2
 43
0.0
 10
206.66
 20
174.93
 10
195.76
 20
166.68
  0
LWPOLYLINE
  5
AB175
330
1F
100
AcDbEntity
  8
Building_Outline_Line
100
AcDbPolyline
 90
     2
 43
0.0
 10
200.81
 20
161.18
 10
209.58
 20
150.81
  0
LWPOLYLINE
  5
AB176
330
1F
100
AcDbEntity
  8
Building_Outline_Line
100
AcDbPolyline
 90
     2
 43
0.0
 10
203.66
 20
198.83
 10
200.66
 20
202.68
  0
LWPOLYLINE
  5
AB177
330
1F
100
AcDbEntity
  8
Building_Division_Line
100
AcDbPolyline
 90
     2
 43
0.0
 10
216.77
 20
165.17
 10
225.21
 20
172.23
  0
LWPOLYLINE
  5
AB178
330
1F
100
AcDbEntity
  8
Building_Outline_Line
100
AcDbPolyline
 90
     2
 43
0.0
 10
203.51
 20
181.98
 10
199.72
 20
186.79
  0
LWPOLYLINE
  5
AB179
330
1F
100
AcDbEntity
  8
General_Feature_Line
100
AcDbPolyline
 90
     2
 43
0.0
 10
198.2
 20
185.55
 10
196.11
 20
188.28
  0
LWPOLYLINE
  5
AB17A
330
1F
100
AcDbEntity
  8
Building_Outline_Line
100
AcDbPolyline
 90
     2
 43
0.0
 10
213.81
 20
186.48
 10
212.56
 20
188.13
  0
LWPOLYLINE
  5
AB17B
330
1F
100
AcDbEntity
  8
Building_Outline_Line
100
AcDbPolyline
 90
     2
 43
0.0
 10
212.56
 20
188.13
 10
209.51
 20
192.03
  0
LWPOLYLINE
  5
AB17C
330
1F
100
AcDbEntity
  8
General_Feature_Line
100
AcDbPolyline
 90
     2
 43
0.0
 10
218.86
 20
158.13
 10
219.46
 20
158.43
  0
LWPOLYLINE
  5
AB17D
330
1F
100
AcDbEntity
  8
Building_Outline_Line
100
AcDbPolyline
 90
     2
 43
0.0
 10
192.81
 20
189.93
 10
195.66
 20
192.18
  0
LWPOLYLINE
  5
AB17E
330
1F
100
AcDbEntity
  8
Building_Outline_Line
100
AcDbPolyline
 90
     2
 43
0.0
 10
229.59
 20
166.65
 10
230.76
 20
167.58
  0
LWPOLYLINE
  5
AB17F
330
1F
100
AcDbEntity
  8
General_Feature_Line
100
AcDbPolyline
 90
     2
 43
0.0
 10
225.41
 20
215.53
 10
224.56
 20
216.56
  0
LWPOLYLINE
  5
AB180
330
1F
100
AcDbEntity
  8
Building_Outline_Line
100
AcDbPolyline
 90
     2
 43
0.0
 10
195.21
 20
209.68
 10
195.51
 20
209.93
  0
LWPOLYLINE
  5
AB181
330
1F
100
AcDbEntity
  8
Building_Outline_Line
100
AcDbPolyline
 90
     2
 43
0.0
 10
229.59
 20
166.65
 10
226.51
 20
170.63
  0
LWPOLYLINE
  5
AB182
330
1F
100
AcDbEntity
  8
Building_Outline_Line
100
AcDbPolyline
 90
     2
 43
0.0
 10
221.01
 20
159.78
 10
216.77
 20
165.17
  0
LWPOLYLINE
  5
AB183
330
1F
100
AcDbEntity
  8
Building_Outline_Line
100
AcDbPolyline
 90
     2
 43
0.0
 10
207.96
 20
193.43
 10
208.21
 20
193.63
  0
LWPOLYLINE
  5
AB184
330
1F
100
AcDbEntity
  8
General_Feature_Line
100
AcDbPolyline
 90
     4
 43
0.0
 10
216.66
 20
182.93
 10
218.61
 20
184.63
 10
215.86
 20
188.03
 10
213.81
 20
186.48
  0
LWPOLYLINE
  5
AB185
330
1F
100
AcDbEntity
  8
General_Feature_Line
100
AcDbPolyline
 90
     3
 43
0.0
 10
236.96
 20
161.19
 10
236.19
 20
160.57
 10
236.13
 20
160.52
  0
LWPOLYLINE
  5
AB186
330
1F
100
AcDbEntity
  8
Building_Outline_Line
100
AcDbPolyline
 90
     2
 43
0.0
 10
208.21
 20
193.63
 10
209.51
 20
192.03
  0
LWPOLYLINE
  5
AB187
330
1F
100
AcDbEntity
  8
Building_Division_Line
100
AcDbPolyline
 90
     2
 43
0.0
 10
203.66
 20
198.83
 10
195.66
 20
192.18
  0
LWPOLYLINE
  5
AB188
330
1F
100
AcDbEntity
  8
Building_Division_Line
100
AcDbPolyline
 90
     3
 43
0.0
 10
212.56
 20
188.13
 10
204.01
 20
181.33
 10
203.51
 20
181.98
  0
LWPOLYLINE
  5
AB189
330
1F
100
AcDbEntity
  8
General_Feature_Line
100
AcDbPolyline
 90
     3
 43
0.0
 10
236.22
 20
162.13
 10
236.06
 20
162.33
 10
235.11
 20
161.78
  0
LWPOLYLINE
  5
AB18A
330
1F
100
AcDbEntity
  8
Building_Outline_Line
100
AcDbPolyline
 90
     2
 43
0.0
 10
209.58
 20
150.81
 10
218.86
 20
158.13
  0
LWPOLYLINE
  5
AB18B
330
1F
100
AcDbEntity
  8
Building_Outline_Line
100
AcDbPolyline
 90
     2
 43
0.0
 10
207.96
 20
193.43
 10
204.91
 20
197.33
  0
LWPOLYLINE
  5
AB18C
330
1F
100
AcDbEntity
  8
Building_Outline_Line
100
AcDbPolyline
 90
     2
 43
0.0
 10
222.26
 20
175.98
 10
221.01
 20
177.48
  0
LWPOLYLINE
  5
AB18D
330
1F
100
AcDbEntity
  8
Building_Outline_Line
100
AcDbPolyline
 90
     3
 43
0.0
 10
208.16
 20
176.08
 10
206.97
 20
175.17
 10
206.66
 20
174.93
  0
LWPOLYLINE
  5
AB18E
330
1F
100
AcDbEntity
  8
Building_Outline_Line
100
AcDbPolyline
 90
     2
 43
0.0
 10
226.51
 20
170.63
 10
225.21
 20
172.23
  0
LWPOLYLINE
  5
AB18F
330
1F
100
AcDbEntity
  8
General_Feature_Line
100
AcDbPolyline
 90
     4
 43
0.0
 10
199.41
 20
204.23
 10
201.61
 20
205.98
 10
198.61
 20
209.78
 10
196.31
 20
208.08
  0
LWPOLYLINE
  5
AB190
330
1F
100
AcDbEntity
  8
Building_Outline_Line
100
AcDbPolyline
 90
     2
 43
0.0
 10
204.91
 20
197.33
 10
203.66
 20
198.83
  0
LWPOLYLINE
  5
AB191
330
1F
100
AcDbEntity
  8
General_Feature_Line
100
AcDbPolyline
 90
     2
 43
0.0
 10
224.31
 20
214.68
 10
225.66
 20
212.88
  0
LWPOLYLINE
  5
AB192
330
1F
100
AcDbEntity
  8
Network_Or_Polygon_Closing_Geometry_Link_Polygon_Closing_Link_Line
100
AcDbPolyline
 90
     2
 43
0.0
 10
195.76
 20
166.68
 10
200.81
 20
161.18
  0
LWPOLYLINE
  5
AB193
330
1F
100
AcDbEntity
  8
Road_Or_Track_Public_Line
100
AcDbPolyline
 90
    13
 43
0.0
 10
199.56
 20
234.58
 10
199.61
 20
234.38
 10
199.61
 20
233.28
 10
199.66
 20
233.13
 10
199.66
 20
232.88
 10
199.71
 20
232.73
 10
199.71
 20
232.58
 10
199.76
 20
232.48
 10
199.76
 20
232.33
 10
199.81
 20
232.18
 10
199.86
 20
231.93
 10
199.86
 20
231.78
 10
199.96
 20
231.0
  0
LWPOLYLINE
  5
AB194
330
1F
100
AcDbEntity
  8
Landform_Top_Of_Slope_Line
100
AcDbPolyline
 90
     2
 43
0.0
 10
272.14
 20
143.08
 10
232.16
 20
193.43
  0
LWPOLYLINE
  5
AB195
330
1F
100
AcDbEntity
  8
Road_Or_Track_Public_Line
100
AcDbPolyline
 90
    13
 43
0.0
 10
275.66
 20
131.83
 10
273.11
 20
132.13
 10
271.71
 20
133.78
 10
272.11
 20
136.68
 10
267.06
 20
143.08
 10
252.96
 20
160.93
 10
250.51
 20
160.93
 10
249.11
 20
162.73
 10
249.31
 20
165.78
 10
225.36
 20
195.73
 10
223.66
 20
196.23
 10
222.91
 20
196.98
 10
224.14
 20
204.6
  0
LWPOLYLINE
  5
AB196
330
1F
100
AcDbEntity
  8
Building_Outline_Line
100
AcDbPolyline
 90
     2
 43
0.0
 10
251.64
 20
42.81
 10
277.36
 20
63.31
  0
LWPOLYLINE
  5
AB197
330
1F
100
AcDbEntity
  8
Building_Outline_Line
100
AcDbPolyline
 90
     3
 43
0.0
 10
277.36
 20
75.33
 10
271.71
 20
82.38
 10
270.86
 20
83.58
  0
LWPOLYLINE
  5
AB198
330
1F
100
AcDbEntity
  8
Building_Outline_Line
100
AcDbPolyline
 90
     2
 43
0.0
 10
267.59
 20
119.25
 10
263.58
 20
116.05
  0
LWPOLYLINE
  5
AB199
330
1F
100
AcDbEntity
  8
General_Feature_Line
100
AcDbPolyline
 90
     3
 43
0.0
 10
225.26
 20
201.67
 10
271.61
 20
143.08
 10
277.36
 20
135.94
  0
LWPOLYLINE
  5
AB19A
330
1F
100
AcDbEntity
  8
General_Feature_Line
100
AcDbPolyline
 90
     2
 43
0.0
 10
269.49
 20
120.76
 10
274.98
 20
113.88
  0
LWPOLYLINE
  5
AB19B
330
1F
100
AcDbEntity
  8
General_Feature_Line
100
AcDbPolyline
 90
     2
 43
0.0
 10
273.07
 20
113.6
 10
268.27
 20
119.78
  0
LWPOLYLINE
  5
AB19C
330
1F
100
AcDbEntity
  8
General_Feature_Line
100
AcDbPolyline
 90
     3
 43
0.0
 10
269.15
 20
94.09
 10
269.41
 20
93.98
 10
270.32
 20
93.29
  0
LWPOLYLINE
  5
AB19D
330
1F
100
AcDbEntity
  8
General_Feature_Line
100
AcDbPolyline
 90
     3
 43
0.0
 10
262.01
 20
161.78
 10
276.76
 20
143.08
 10
277.36
 20
142.34
  0
LWPOLYLINE
  5
AB19E
330
1F
100
AcDbEntity
  8
Building_Outline_Line
100
AcDbPolyline
 90
     3
 43
0.0
 10
269.49
 20
120.76
 10
251.6
 20
143.08
 10
242.34
 20
154.63
  0
LWPOLYLINE
  5
AB19F
330
1F
100
AcDbEntity
  8
General_Feature_Line
100
AcDbPolyline
 90
     2
 43
0.0
 10
270.24
 20
115.92
 10
272.06
 20
113.64
  0
LWPOLYLINE
  5
AB1A0
330
1F
100
AcDbEntity
  8
General_Feature_Line
100
AcDbPolyline
 90
    14
 43
0.0
 10
270.32
 20
93.29
 10
266.46
 20
91.03
 10
259.16
 20
86.78
 10
249.71
 20
81.38
 10
239.56
 20
75.48
 10
229.91
 20
70.03
 10
229.51
 20
69.73
 10
229.88
 20
68.99
 10
227.91
 20
67.93
 10
223.36
 20
65.63
 10
213.21
 20
60.78
 10
208.18
 20
58.29
 10
206.76
 20
57.58
 10
200.06
 20
54.29
  0
LWPOLYLINE
  5
AB1A1
330
1F
100
AcDbEntity
  8
General_Feature_Line
100
AcDbPolyline
 90
     2
 43
0.0
 10
183.01
 20
205.33
 10
185.66
 20
201.98
  0
LWPOLYLINE
  5
AB1A2
330
1F
100
AcDbEntity
  8
Building_Division_Line
100
AcDbPolyline
 90
     2
 43
0.0
 10
187.06
 20
203.13
 10
195.21
 20
209.68
  0
LWPOLYLINE
  5
AB1A3
330
1F
100
AcDbEntity
  8
Building_Outline_Line
100
AcDbPolyline
 90
     4
 43
0.0
 10
187.06
 20
203.13
 10
184.31
 20
206.73
 10
182.86
 20
205.63
 10
183.01
 20
205.33
  0
LWPOLYLINE
  5
AB1A4
330
1F
100
AcDbEntity
  8
General_Feature_Line
100
AcDbPolyline
 90
     3
 43
0.0
 10
181.36
 20
210.68
 10
183.16
 20
208.43
 10
185.56
 20
210.78
  0
LWPOLYLINE
  5
AB1A5
330
1F
100
AcDbEntity
  8
Building_Outline_Line
100
AcDbPolyline
 90
     2
 43
0.0
 10
181.36
 20
210.68
 10
178.11
 20
208.03
  0
LWPOLYLINE
  5
AB1A6
330
1F
100
AcDbEntity
  8
Road_Or_Track_Public_Line
100
AcDbPolyline
 90
     8
 43
0.0
 10
194.06
 20
230.33
 10
193.96
 20
230.28
 10
193.71
 20
230.28
 10
193.61
 20
230.33
 10
193.51
 20
230.43
 10
193.41
 20
230.48
 10
193.36
 20
230.68
 10
189.67
 20
234.98
  0
LWPOLYLINE
  5
AB1A7
330
1F
100
AcDbEntity
  8
Road_Or_Track_Public_Line
100
AcDbPolyline
 90
     6
 43
0.0
 10
192.54
 20
234.98
 10
194.26
 20
230.93
 10
194.31
 20
230.83
 10
194.31
 20
230.68
 10
194.21
 20
230.48
 10
194.06
 20
230.33
  0
LWPOLYLINE
  5
AB1A8
330
1F
100
AcDbEntity
  8
Road_Or_Track_Public_Line
100
AcDbPolyline
 90
     5
 43
0.0
 10
178.86
 20
222.03
 10
181.41
 20
218.83
 10
184.01
 20
215.63
 10
177.61
 20
210.53
 10
171.31
 20
205.23
  0
LWPOLYLINE
  5
AB1A9
330
1F
100
AcDbEntity
  8
General_Feature_Line
100
AcDbPolyline
 90
    45
 43
0.0
 10
193.14
 20
212.78
 10
193.21
 20
212.83
 10
193.51
 20
212.98
 10
193.56
 20
213.08
 10
193.66
 20
213.13
 10
193.76
 20
213.33
 10
193.86
 20
213.38
 10
194.06
 20
213.78
 10
194.11
 20
213.93
 10
194.16
 20
214.18
 10
194.11
 20
214.78
 10
194.06
 20
215.03
 10
194.06
 20
215.18
 10
193.86
 20
215.58
 10
193.76
 20
215.63
 10
193.71
 20
215.73
 10
193.56
 20
215.88
 10
193.41
 20
215.98
 10
193.36
 20
216.08
 10
193.26
 20
216.13
 10
193.01
 20
216.38
 10
192.91
 20
216.43
 10
192.76
 20
216.58
 10
192.36
 20
216.78
 10
192.26
 20
216.88
 10
192.16
 20
216.93
 10
192.01
 20
216.98
 10
191.91
 20
217.03
 10
191.76
 20
217.08
 10
191.56
 20
217.13
 10
191.41
 20
217.13
 10
191.3
 20
217.18
 10
191.11
 20
217.23
 10
190.01
 20
217.18
 10
189.71
 20
217.13
 10
189.51
 20
217.08
 10
189.36
 20
217.08
 10
189.21
 20
217.03
 10
188.61
 20
216.73
 10
188.51
 20
216.63
 10
188.36
 20
216.58
 10
188.16
 20
216.38
 10
188.06
 20
216.33
 10
187.96
 20
216.23
 10
183.91
 20
212.78
  0
LWPOLYLINE
  5
AB1AA
330
1F
100
AcDbEntity
  8
General_Feature_Line
100
AcDbPolyline
 90
     5
 43
0.0
 10
189.91
 20
196.38
 10
190.46
 20
195.63
 10
190.36
 20
195.28
 10
190.96
 20
194.48
 10
192.79
 20
195.85
  0
LWPOLYLINE
  5
AB1AB
330
1F
100
AcDbEntity
  8
Building_Outline_Line
100
AcDbPolyline
 90
     2
 43
0.0
 10
187.06
 20
203.13
 10
185.66
 20
201.98
  0
LWPOLYLINE
  5
AB1AC
330
1F
100
AcDbEntity
  8
Building_Outline_Line
100
AcDbPolyline
 90
     2
 43
0.0
 10
174.8
 20
198.58
 10
171.25
 20
195.67
  0
LWPOLYLINE
  5
AB1AD
330
1F
100
AcDbEntity
  8
General_Feature_Line
100
AcDbPolyline
 90
     2
 43
0.0
 10
151.71
 20
186.48
 10
153.02
 20
184.91
  0
LWPOLYLINE
  5
AB1AE
330
1F
100
AcDbEntity
  8
General_Feature_Line
100
AcDbPolyline
 90
     2
 43
0.0
 10
90.11
 20
180.38
 10
92.41
 20
174.98
  0
LWPOLYLINE
  5
AB1AF
330
1F
100
AcDbEntity
  8
General_Feature_Line
100
AcDbPolyline
 90
     2
 43
0.0
 10
113.9
 20
172.07
 10
115.26
 20
172.73
  0
LWPOLYLINE
  5
AB1B0
330
1F
100
AcDbEntity
  8
Building_Outline_Line
100
AcDbPolyline
 90
     2
 43
0.0
 10
80.56
 20
202.33
 10
82.78
 20
203.33
  0
LWPOLYLINE
  5
AB1B1
330
1F
100
AcDbEntity
  8
General_Feature_Line
100
AcDbPolyline
 90
     2
 43
0.0
 10
114.47
 20
185.18
 10
112.01
 20
190.43
  0
LWPOLYLINE
  5
AB1B2
330
1F
100
AcDbEntity
  8
General_Feature_Line
100
AcDbPolyline
 90
     2
 43
0.0
 10
90.11
 20
180.38
 10
95.09
 20
182.68
  0
LWPOLYLINE
  5
AB1B3
330
1F
100
AcDbEntity
  8
General_Feature_Line
100
AcDbPolyline
 90
     4
 43
0.0
 10
178.36
 20
187.33
 10
181.83
 20
190.05
 10
188.49
 20
195.27
 10
189.91
 20
196.38
  0
LWPOLYLINE
  5
AB1B4
330
1F
100
AcDbEntity
  8
General_Feature_Line
100
AcDbPolyline
 90
     2
 43
0.0
 10
98.76
 20
177.93
 10
100.91
 20
173.13
  0
LWPOLYLINE
  5
AB1B5
330
1F
100
AcDbEntity
  8
Building_Outline_Line
100
AcDbPolyline
 90
     2
 43
0.0
 10
181.39
 20
204.0
 10
174.8
 20
198.58
  0
LWPOLYLINE
  5
AB1B6
330
1F
100
AcDbEntity
  8
Building_Division_Line
100
AcDbPolyline
 90
     2
 43
0.0
 10
98.7
 20
184.27
 10
106.68
 20
187.96
  0
LWPOLYLINE
  5
AB1B7
330
1F
100
AcDbEntity
  8
General_Feature_Line
100
AcDbPolyline
 90
     2
 43
0.0
 10
85.01
 20
198.18
 10
85.23
 20
197.72
  0
LWPOLYLINE
  5
AB1B8
330
1F
100
AcDbEntity
  8
General_Feature_Line
100
AcDbPolyline
 90
     3
 43
0.0
 10
80.96
 20
191.78
 10
83.11
 20
187.23
 10
78.26
 20
184.88
  0
LWPOLYLINE
  5
AB1B9
330
1F
100
AcDbEntity
  8
Road_Or_Track_Public_Line
100
AcDbPolyline
 90
    19
 43
0.0
 10
128.06
 20
177.53
 10
128.46
 20
177.48
 10
129.01
 20
177.53
 10
129.41
 20
177.58
 10
129.81
 20
177.68
 10
129.96
 20
177.73
 10
130.06
 20
177.78
 10
130.21
 20
177.83
 10
130.51
 20
177.98
 10
135.06
 20
182.03
 10
135.26
 20
182.18
 10
135.41
 20
182.28
 10
135.51
 20
182.43
 10
135.56
 20
182.58
 10
135.61
 20
182.78
 10
135.61
 20
182.93
 10
135.56
 20
183.18
 10
135.51
 20
183.33
 10
134.91
 20
184.23
  0
LWPOLYLINE
  5
AB1BA
330
1F
100
AcDbEntity
  8
General_Feature_Line
100
AcDbPolyline
 90
     3
 43
0.0
 10
162.41
 20
192.93
 10
161.26
 20
194.33
 10
156.21
 20
190.23
  0
LWPOLYLINE
  5
AB1BB
330
1F
100
AcDbEntity
  8
General_Feature_Line
100
AcDbPolyline
 90
     3
 43
0.0
 10
117.31
 20
168.13
 10
121.06
 20
171.08
 10
119.46
 20
174.53
  0
LWPOLYLINE
  5
AB1BC
330
1F
100
AcDbEntity
  8
General_Feature_Line
100
AcDbPolyline
 90
     2
 43
0.0
 10
83.6
 20
201.43
 10
85.01
 20
198.18
  0
LWPOLYLINE
  5
AB1BD
330
1F
100
AcDbEntity
  8
General_Feature_Line
100
AcDbPolyline
 90
     2
 43
0.0
 10
172.06
 20
181.88
 10
170.41
 20
180.48
  0
LWPOLYLINE
  5
AB1BE
330
1F
100
AcDbEntity
  8
Building_Outline_Line
100
AcDbPolyline
 90
     2
 43
0.0
 10
98.7
 20
184.27
 10
101.06
 20
178.98
  0
LWPOLYLINE
  5
AB1BF
330
1F
100
AcDbEntity
  8
General_Feature_Line
100
AcDbPolyline
 90
     2
 43
0.0
 10
86.21
 20
195.63
 10
84.01
 20
194.68
  0
LWPOLYLINE
  5
AB1C0
330
1F
100
AcDbEntity
  8
General_Feature_Line
100
AcDbPolyline
 90
     4
 43
0.0
 10
182.81
 20
169.63
 10
181.16
 20
171.53
 10
179.26
 20
173.68
 10
175.26
 20
178.23
  0
LWPOLYLINE
  5
AB1C1
330
1F
100
AcDbEntity
  8
General_Feature_Line
100
AcDbPolyline
 90
     2
 43
0.0
 10
108.05
 20
188.59
 10
105.61
 20
193.98
  0
LWPOLYLINE
  5
AB1C2
330
1F
100
AcDbEntity
  8
General_Feature_Line
100
AcDbPolyline
 90
     2
 43
0.0
 10
161.07
 20
175.34
 10
165.56
 20
179.03
  0
LWPOLYLINE
  5
AB1C3
330
1F
100
AcDbEntity
  8
General_Feature_Line
100
AcDbPolyline
 90
     2
 43
0.0
 10
173.91
 20
192.53
 10
178.36
 20
187.33
  0
LWPOLYLINE
  5
AB1C4
330
1F
100
AcDbEntity
  8
General_Feature_Line
100
AcDbPolyline
 90
     2
 43
0.0
 10
156.11
 20
171.28
 10
160.31
 20
166.23
  0
LWPOLYLINE
  5
AB1C5
330
1F
100
AcDbEntity
  8
Building_Outline_Line
100
AcDbPolyline
 90
     2
 43
0.0
 10
171.48
 20
202.61
 10
167.88
 20
199.66
  0
LWPOLYLINE
  5
AB1C6
330
1F
100
AcDbEntity
  8
Building_Outline_Line
100
AcDbPolyline
 90
     2
 43
0.0
 10
160.36
 20
176.23
 10
161.07
 20
175.34
  0
LWPOLYLINE
  5
AB1C7
330
1F
100
AcDbEntity
  8
Building_Outline_Line
100
AcDbPolyline
 90
     3
 43
0.0
 10
162.41
 20
192.93
 10
165.66
 20
189.18
 10
166.86
 20
190.18
  0
LWPOLYLINE
  5
AB1C8
330
1F
100
AcDbEntity
  8
General_Feature_Line
100
AcDbPolyline
 90
     3
 43
0.0
 10
83.43
 20
197.0
 10
83.06
 20
196.83
 10
84.01
 20
194.68
  0
LWPOLYLINE
  5
AB1C9
330
1F
100
AcDbEntity
  8
General_Feature_Line
100
AcDbPolyline
 90
     2
 43
0.0
 10
110.43
 20
183.34
 10
108.05
 20
188.59
  0
LWPOLYLINE
  5
AB1CA
330
1F
100
AcDbEntity
  8
Network_Or_Polygon_Closing_Geometry_Link_Polygon_Closing_Link_Line
100
AcDbPolyline
 90
     2
 43
0.0
 10
122.76
 20
171.23
 10
126.0
 20
167.57
  0
LWPOLYLINE
  5
AB1CB
330
1F
100
AcDbEntity
  8
Building_Outline_Line
100
AcDbPolyline
 90
     2
 43
0.0
 10
178.06
 20
164.23
 10
169.66
 20
174.18
  0
LWPOLYLINE
  5
AB1CC
330
1F
100
AcDbEntity
  8
General_Feature_Line
100
AcDbPolyline
 90
     2
 43
0.0
 10
106.68
 20
187.96
 10
108.05
 20
188.59
  0
LWPOLYLINE
  5
AB1CD
330
1F
100
AcDbEntity
  8
Building_Outline_Line
100
AcDbPolyline
 90
     3
 43
0.0
 10
86.06
 20
173.58
 10
83.71
 20
178.58
 10
77.36
 20
175.56
  0
LWPOLYLINE
  5
AB1CE
330
1F
100
AcDbEntity
  8
Building_Division_Line
100
AcDbPolyline
 90
     2
 43
0.0
 10
103.36
 20
174.23
 10
111.26
 20
177.88
  0
LWPOLYLINE
  5
AB1CF
330
1F
100
AcDbEntity
  8
Building_Outline_Line
100
AcDbPolyline
 90
     2
 43
0.0
 10
93.71
 20
194.78
 10
96.01
 20
189.63
  0
LWPOLYLINE
  5
AB1D0
330
1F
100
AcDbEntity
  8
Building_Outline_Line
100
AcDbPolyline
 90
     2
 43
0.0
 10
138.56
 20
173.23
 10
143.36
 20
177.28
  0
LWPOLYLINE
  5
AB1D1
330
1F
100
AcDbEntity
  8
Building_Outline_Line
100
AcDbPolyline
 90
     2
 43
0.0
 10
101.06
 20
178.98
 10
100.81
 20
178.83
  0
LWPOLYLINE
  5
AB1D2
330
1F
100
AcDbEntity
  8
Network_Or_Polygon_Closing_Geometry_Link_Polygon_Closing_Link_Line
100
AcDbPolyline
 90
     2
 43
0.0
 10
159.99
 20
202.79
 10
162.16
 20
196.03
  0
LWPOLYLINE
  5
AB1D3
330
1F
100
AcDbEntity
  8
Building_Outline_Line
100
AcDbPolyline
 90
     2
 43
0.0
 10
109.08
 20
182.72
 10
111.26
 20
177.88
  0
LWPOLYLINE
  5
AB1D4
330
1F
100
AcDbEntity
  8
General_Feature_Line
100
AcDbPolyline
 90
     4
 43
0.0
 10
92.81
 20
174.23
 10
94.71
 20
170.18
 10
98.86
 20
172.16
 10
100.91
 20
173.13
  0
LWPOLYLINE
  5
AB1D5
330
1F
100
AcDbEntity
  8
Road_Or_Track_Public_Line
100
AcDbPolyline
 90
     8
 43
0.0
 10
162.16
 20
196.03
 10
161.46
 20
196.23
 10
160.66
 20
196.13
 10
159.91
 20
195.78
 10
159.06
 20
195.23
 10
157.76
 20
194.18
 10
156.56
 20
193.33
 10
132.03
 20
172.66
  0
LWPOLYLINE
  5
AB1D6
330
1F
100
AcDbEntity
  8
General_Feature_Line
100
AcDbPolyline
 90
     2
 43
0.0
 10
100.91
 20
173.13
 10
101.41
 20
173.33
  0
LWPOLYLINE
  5
AB1D7
330
1F
100
AcDbEntity
  8
Network_Or_Polygon_Closing_Geometry_Link_Polygon_Closing_Link_Line
100
AcDbPolyline
 90
     2
 43
0.0
 10
128.06
 20
177.53
 10
132.03
 20
172.66
  0
LWPOLYLINE
  5
AB1D8
330
1F
100
AcDbEntity
  8
Building_Outline_Line
100
AcDbPolyline
 90
     3
 43
0.0
 10
199.72
 20
186.79
 10
197.61
 20
189.48
 10
196.11
 20
188.28
  0
LWPOLYLINE
  5
AB1D9
330
1F
100
AcDbEntity
  8
Building_Outline_Line
100
AcDbPolyline
 90
     2
 43
0.0
 10
195.66
 20
192.18
 10
192.79
 20
195.85
  0
LWPOLYLINE
  5
AB1DA
330
1F
100
AcDbEntity
  8
Network_Or_Polygon_Closing_Geometry_Link_Polygon_Closing_Link_Line
100
AcDbPolyline
 90
     2
 43
0.0
 10
122.76
 20
171.23
 10
128.06
 20
177.53
  0
LWPOLYLINE
  5
AB1DB
330
1F
100
AcDbEntity
  8
Building_Outline_Line
100
AcDbPolyline
 90
     2
 43
0.0
 10
192.79
 20
195.85
 10
191.39
 20
197.65
  0
LWPOLYLINE
  5
AB1DC
330
1F
100
AcDbEntity
  8
General_Feature_Line
100
AcDbPolyline
 90
     2
 43
0.0
 10
155.37
 20
172.07
 10
156.11
 20
171.28
  0
LWPOLYLINE
  5
AB1DD
330
1F
100
AcDbEntity
  8
Building_Outline_Line
100
AcDbPolyline
 90
     2
 43
0.0
 10
164.85
 20
179.89
 10
160.36
 20
176.23
  0
LWPOLYLINE
  5
AB1DE
330
1F
100
AcDbEntity
  8
Building_Outline_Line
100
AcDbPolyline
 90
     2
 43
0.0
 10
171.25
 20
195.67
 10
173.91
 20
192.53
  0
LWPOLYLINE
  5
AB1DF
330
1F
100
AcDbEntity
  8
Building_Division_Line
100
AcDbPolyline
 90
     2
 43
0.0
 10
148.05
 20
180.75
 10
155.37
 20
172.07
  0
LWPOLYLINE
  5
AB1E0
330
1F
100
AcDbEntity
  8
General_Feature_Line
100
AcDbPolyline
 90
     2
 43
0.0
 10
168.43
 20
182.81
 10
170.41
 20
180.48
  0
LWPOLYLINE
  5
AB1E1
330
1F
100
AcDbEntity
  8
Road_Or_Track_Public_Line
100
AcDbPolyline
 90
     2
 43
0.0
 10
162.64
 20
195.41
 10
162.16
 20
196.03
  0
LWPOLYLINE
  5
AB1E2
330
1F
100
AcDbEntity
  8
General_Feature_Line
100
AcDbPolyline
 90
     2
 43
0.0
 10
91.71
 20
193.87
 10
85.56
 20
191.23
  0
LWPOLYLINE
  5
AB1E3
330
1F
100
AcDbEntity
  8
General_Feature_Line
100
AcDbPolyline
 90
     2
 43
0.0
 10
104.23
 20
193.39
 10
105.16
 20
193.78
  0
LWPOLYLINE
  5
AB1E4
330
1F
100
AcDbEntity
  8
Building_Outline_Line
100
AcDbPolyline
 90
     2
 43
0.0
 10
191.39
 20
197.65
 10
188.61
 20
201.21
  0
LWPOLYLINE
  5
AB1E5
330
1F
100
AcDbEntity
  8
Building_Outline_Line
100
AcDbPolyline
 90
     2
 43
0.0
 10
80.96
 20
191.78
 10
77.36
 20
199.17
  0
LWPOLYLINE
  5
AB1E6
330
1F
100
AcDbEntity
  8
General_Feature_Line
100
AcDbPolyline
 90
     2
 43
0.0
 10
164.85
 20
179.89
 10
165.56
 20
179.03
  0
LWPOLYLINE
  5
AB1E7
330
1F
100
AcDbEntity
  8
Network_Or_Polygon_Closing_Geometry_Link_Polygon_Closing_Link_Line
100
AcDbPolyline
 90
     2
 43
0.0
 10
162.16
 20
196.03
 10
166.36
 20
200.18
  0
LWPOLYLINE
  5
AB1E8
330
1F
100
AcDbEntity
  8
Road_Or_Track_Public_Line
100
AcDbPolyline
 90
    32
 43
0.0
 10
159.99
 20
202.79
 10
160.01
 20
202.03
 10
160.01
 20
200.88
 10
159.96
 20
200.43
 10
159.66
 20
200.03
 10
158.81
 20
199.23
 10
157.66
 20
198.18
 10
156.51
 20
197.18
 10
155.46
 20
196.38
 10
154.96
 20
196.23
 10
154.86
 20
196.33
 10
154.16
 20
197.13
 10
153.41
 20
197.98
 10
153.16
 20
198.08
 10
153.01
 20
197.98
 10
152.11
 20
197.28
 10
150.66
 20
196.03
 10
149.41
 20
194.93
 10
146.91
 20
192.58
 10
144.36
 20
190.38
 10
143.06
 20
189.23
 10
141.76
 20
187.98
 10
140.71
 20
187.03
 10
140.46
 20
186.73
 10
140.26
 20
186.58
 10
140.11
 20
186.48
 10
139.91
 20
186.38
 10
139.71
 20
186.33
 10
139.26
 20
186.33
 10
138.91
 20
186.43
 10
138.71
 20
186.53
 10
138.16
 20
187.23
  0
LWPOLYLINE
  5
AB1E9
330
1F
100
AcDbEntity
  8
General_Feature_Line
100
AcDbPolyline
 90
     2
 43
0.0
 10
112.01
 20
190.43
 10
109.54
 20
195.82
  0
LWPOLYLINE
  5
AB1EA
330
1F
100
AcDbEntity
  8
Network_Or_Polygon_Closing_Geometry_Link_Polygon_Closing_Link_Line
100
AcDbPolyline
 90
     2
 43
0.0
 10
187.31
 20
176.74
 10
195.76
 20
166.68
  0
LWPOLYLINE
  5
AB1EB
330
1F
100
AcDbEntity
  8
General_Feature_Line
100
AcDbPolyline
 90
     2
 43
0.0
 10
89.17
 20
200.18
 10
85.01
 20
198.18
  0
LWPOLYLINE
  5
AB1EC
330
1F
100
AcDbEntity
  8
Building_Outline_Line
100
AcDbPolyline
 90
     2
 43
0.0
 10
153.02
 20
184.91
 10
157.4
 20
188.69
  0
LWPOLYLINE
  5
AB1ED
330
1F
100
AcDbEntity
  8
General_Feature_Line
100
AcDbPolyline
 90
     3
 43
0.0
 10
80.01
 20
201.43
 10
83.29
 20
194.37
 10
86.51
 20
187.45
  0
LWPOLYLINE
  5
AB1EE
330
1F
100
AcDbEntity
  8
General_Feature_Line
100
AcDbPolyline
 90
     2
 43
0.0
 10
105.16
 20
193.78
 10
105.61
 20
193.98
  0
LWPOLYLINE
  5
AB1EF
330
1F
100
AcDbEntity
  8
General_Feature_Line
100
AcDbPolyline
 90
     3
 43
0.0
 10
185.66
 20
201.98
 10
187.16
 20
200.03
 10
188.61
 20
201.21
  0
LWPOLYLINE
  5
AB1F0
330
1F
100
AcDbEntity
  8
General_Feature_Line
100
AcDbPolyline
 90
     2
 43
0.0
 10
80.61
 20
201.68
 10
80.01
 20
201.43
  0
LWPOLYLINE
  5
AB1F1
330
1F
100
AcDbEntity
  8
General_Feature_Line
100
AcDbPolyline
 90
     2
 43
0.0
 10
93.71
 20
194.78
 10
91.71
 20
193.87
  0
LWPOLYLINE
  5
AB1F2
330
1F
100
AcDbEntity
  8
General_Feature_Line
100
AcDbPolyline
 90
     2
 43
0.0
 10
178.36
 20
187.33
 10
182.91
 20
181.93
  0
LWPOLYLINE
  5
AB1F3
330
1F
100
AcDbEntity
  8
General_Feature_Line
100
AcDbPolyline
 90
     2
 43
0.0
 10
156.11
 20
171.28
 10
159.24
 20
173.76
  0
LWPOLYLINE
  5
AB1F4
330
1F
100
AcDbEntity
  8
General_Feature_Line
100
AcDbPolyline
 90
     2
 43
0.0
 10
83.6
 20
201.43
 10
87.89
 20
203.14
  0
LWPOLYLINE
  5
AB1F5
330
1F
100
AcDbEntity
  8
General_Feature_Line
100
AcDbPolyline
 90
     3
 43
0.0
 10
187.31
 20
176.74
 10
194.26
 20
182.33
 10
198.2
 20
185.55
  0
LWPOLYLINE
  5
AB1F6
330
1F
100
AcDbEntity
  8
General_Feature_Line
100
AcDbPolyline
 90
     3
 43
0.0
 10
166.86
 20
190.18
 10
162.86
 20
195.08
 10
162.64
 20
195.41
  0
LWPOLYLINE
  5
AB1F7
330
1F
100
AcDbEntity
  8
General_Feature_Line
100
AcDbPolyline
 90
     2
 43
0.0
 10
87.89
 20
203.14
 10
89.17
 20
200.18
  0
LWPOLYLINE
  5
AB1F8
330
1F
100
AcDbEntity
  8
General_Feature_Line
100
AcDbPolyline
 90
     2
 43
0.0
 10
85.23
 20
197.72
 10
86.21
 20
195.63
  0
LWPOLYLINE
  5
AB1F9
330
1F
100
AcDbEntity
  8
General_Feature_Line
100
AcDbPolyline
 90
     4
 43
0.0
 10
83.43
 20
197.0
 10
81.81
 20
199.53
 10
80.86
 20
201.03
 10
80.61
 20
201.68
  0
LWPOLYLINE
  5
AB1FA
330
1F
100
AcDbEntity
  8
Building_Outline_Line
100
AcDbPolyline
 90
     3
 43
0.0
 10
159.24
 20
173.76
 10
158.51
 20
174.63
 10
155.37
 20
172.07
  0
LWPOLYLINE
  5
AB1FB
330
1F
100
AcDbEntity
  8
Building_Outline_Line
100
AcDbPolyline
 90
     2
 43
0.0
 10
155.37
 20
172.07
 10
150.81
 20
168.33
  0
LWPOLYLINE
  5
AB1FC
330
1F
100
AcDbEntity
  8
General_Feature_Line
100
AcDbPolyline
 90
     2
 43
0.0
 10
82.78
 20
203.33
 10
83.6
 20
201.43
  0
LWPOLYLINE
  5
AB1FD
330
1F
100
AcDbEntity
  8
Building_Division_Line
100
AcDbPolyline
 90
     2
 43
0.0
 10
96.26
 20
189.73
 10
104.23
 20
193.39
  0
LWPOLYLINE
  5
AB1FE
330
1F
100
AcDbEntity
  8
General_Feature_Line
100
AcDbPolyline
 90
     2
 43
0.0
 10
192.81
 20
189.93
 10
182.91
 20
181.93
  0
LWPOLYLINE
  5
AB1FF
330
1F
100
AcDbEntity
  8
General_Feature_Line
100
AcDbPolyline
 90
     3
 43
0.0
 10
89.17
 20
200.18
 10
90.36
 20
197.43
 10
86.21
 20
195.63
  0
LWPOLYLINE
  5
AB200
330
1F
100
AcDbEntity
  8
Building_Outline_Line
100
AcDbPolyline
 90
     2
 43
0.0
 10
157.4
 20
188.69
 10
162.41
 20
192.93
  0
LWPOLYLINE
  5
AB201
330
1F
100
AcDbEntity
  8
General_Feature_Line
100
AcDbPolyline
 90
     2
 43
0.0
 10
151.5
 20
167.5
 10
156.11
 20
171.28
  0
LWPOLYLINE
  5
AB202
330
1F
100
AcDbEntity
  8
Network_Or_Polygon_Closing_Geometry_Link_Polygon_Closing_Link_Line
100
AcDbPolyline
 90
     2
 43
0.0
 10
118.16
 20
199.98
 10
118.61
 20
198.63
  0
LWPOLYLINE
  5
AB203
330
1F
100
AcDbEntity
  8
Building_Outline_Line
100
AcDbPolyline
 90
     2
 43
0.0
 10
188.61
 20
201.21
 10
187.06
 20
203.13
  0
LWPOLYLINE
  5
AB204
330
1F
100
AcDbEntity
  8
Building_Outline_Line
100
AcDbPolyline
 90
     2
 43
0.0
 10
167.88
 20
199.66
 10
171.25
 20
195.67
  0
LWPOLYLINE
  5
AB205
330
1F
100
AcDbEntity
  8
General_Feature_Line
100
AcDbPolyline
 90
     3
 43
0.0
 10
169.66
 20
174.18
 10
166.87
 20
177.48
 10
165.56
 20
179.03
  0
LWPOLYLINE
  5
AB206
330
1F
100
AcDbEntity
  8
General_Feature_Line
100
AcDbPolyline
 90
     2
 43
0.0
 10
84.01
 20
194.68
 10
85.56
 20
191.23
  0
LWPOLYLINE
  5
AB207
330
1F
100
AcDbEntity
  8
Building_Division_Line
100
AcDbPolyline
 90
     2
 43
0.0
 10
157.4
 20
188.69
 10
164.85
 20
179.89
  0
LWPOLYLINE
  5
AB208
330
1F
100
AcDbEntity
  8
General_Feature_Line
100
AcDbPolyline
 90
     2
 43
0.0
 10
137.61
 20
174.58
 10
133.01
 20
170.68
  0
LWPOLYLINE
  5
AB209
330
1F
100
AcDbEntity
  8
General_Feature_Line
100
AcDbPolyline
 90
     4
 43
0.0
 10
94.41
 20
188.88
 10
96.11
 20
185.03
 10
94.41
 20
184.28
 10
95.09
 20
182.68
  0
LWPOLYLINE
  5
AB20A
330
1F
100
AcDbEntity
  8
Building_Outline_Line
100
AcDbPolyline
 90
     2
 43
0.0
 10
134.27
 20
169.07
 10
138.91
 20
172.93
  0
LWPOLYLINE
  5
AB20B
330
1F
100
AcDbEntity
  8
General_Feature_Line
100
AcDbPolyline
 90
     2
 43
0.0
 10
78.76
 20
183.83
 10
85.96
 20
187.19
  0
LWPOLYLINE
  5
AB20C
330
1F
100
AcDbEntity
  8
General_Feature_Line
100
AcDbPolyline
 90
     3
 43
0.0
 10
101.96
 20
163.49
 10
105.06
 20
164.93
 10
104.01
 20
167.43
  0
LWPOLYLINE
  5
AB20D
330
1F
100
AcDbEntity
  8
Building_Outline_Line
100
AcDbPolyline
 90
     2
 43
0.0
 10
111.26
 20
177.88
 10
113.9
 20
172.07
  0
LWPOLYLINE
  5
AB20E
330
1F
100
AcDbEntity
  8
General_Feature_Line
100
AcDbPolyline
 90
     2
 43
0.0
 10
105.61
 20
193.98
 10
109.54
 20
195.82
  0
LWPOLYLINE
  5
AB20F
330
1F
100
AcDbEntity
  8
General_Feature_Line
100
AcDbPolyline
 90
     2
 43
0.0
 10
170.11
 20
184.18
 10
172.06
 20
181.88
  0
LWPOLYLINE
  5
AB210
330
1F
100
AcDbEntity
  8
General_Feature_Line
100
AcDbPolyline
 90
     3
 43
0.0
 10
91.04
 20
135.54
 10
87.13
 20
132.31
 10
87.97
 20
131.33
  0
LWPOLYLINE
  5
AB211
330
1F
100
AcDbEntity
  8
Building_Outline_Line
100
AcDbPolyline
 90
     2
 43
0.0
 10
142.89
 20
139.46
 10
150.84
 20
130.05
  0
LWPOLYLINE
  5
AB212
330
1F
100
AcDbEntity
  8
Building_Division_Line
100
AcDbPolyline
 90
     3
 43
0.0
 10
114.89
 20
141.81
 10
113.81
 20
143.08
 10
108.94
 20
148.85
  0
LWPOLYLINE
  5
AB213
330
1F
100
AcDbEntity
  8
General_Feature_Line
100
AcDbPolyline
 90
     5
 43
0.0
 10
79.04
 20
143.08
 10
79.96
 20
143.88
 10
81.16
 20
144.98
 10
81.76
 20
145.48
 10
82.46
 20
145.93
  0
LWPOLYLINE
  5
AB214
330
1F
100
AcDbEntity
  8
General_Feature_Line
100
AcDbPolyline
 90
     2
 43
0.0
 10
132.04
 20
130.91
 10
124.26
 20
139.91
  0
LWPOLYLINE
  5
AB215
330
1F
100
AcDbEntity
  8
Building_Outline_Line
100
AcDbPolyline
 90
     3
 43
0.0
 10
142.44
 20
137.26
 10
141.56
 20
138.23
 10
142.89
 20
139.46
  0
LWPOLYLINE
  5
AB216
330
1F
100
AcDbEntity
  8
General_Feature_Line
100
AcDbPolyline
 90
    11
 43
0.0
 10
113.41
 20
155.08
 10
113.56
 20
154.98
 10
113.71
 20
154.83
 10
114.06
 20
154.53
 10
114.26
 20
154.38
 10
114.31
 20
154.28
 10
114.51
 20
154.13
 10
114.56
 20
154.03
 10
123.69
 20
143.08
 10
125.41
 20
141.08
 10
124.26
 20
139.91
  0
LWPOLYLINE
  5
AB217
330
1F
100
AcDbEntity
  8
General_Feature_Line
100
AcDbPolyline
 90
     3
 43
0.0
 10
158.45
 20
139.71
 10
155.56
 20
143.08
 10
142.56
 20
158.93
  0
LWPOLYLINE
  5
AB218
330
1F
100
AcDbEntity
  8
General_Feature_Line
100
AcDbPolyline
 90
     3
 43
0.0
 10
132.46
 20
151.88
 10
139.86
 20
143.08
 10
142.89
 20
139.46
  0
LWPOLYLINE
  5
AB219
330
1F
100
AcDbEntity
  8
General_Feature_Line
100
AcDbPolyline
 90
     2
 43
0.0
 10
96.01
 20
138.08
 10
95.22
 20
139.0
  0
LWPOLYLINE
  5
AB21A
330
1F
100
AcDbEntity
  8
General_Feature_Line
100
AcDbPolyline
 90
     3
 43
0.0
 10
130.81
 20
144.47
 10
132.01
 20
143.08
 10
139.41
 20
134.61
  0
LWPOLYLINE
  5
AB21B
330
1F
100
AcDbEntity
  8
Building_Outline_Line
100
AcDbPolyline
 90
     3
 43
0.0
 10
225.15
 20
140.56
 10
228.36
 20
143.08
 10
232.15
 20
146.06
  0
LWPOLYLINE
  5
AB21C
330
1F
100
AcDbEntity
  8
General_Feature_Line
100
AcDbPolyline
 90
     7
 43
0.0
 10
80.11
 20
143.08
 10
79.71
 20
142.73
 10
80.81
 20
141.38
 10
82.86
 20
143.08
 10
83.26
 20
143.58
 10
82.11
 20
144.83
 10
80.11
 20
143.08
  0
LWPOLYLINE
  5
AB21D
330
1F
100
AcDbEntity
  8
Building_Outline_Line
100
AcDbPolyline
 90
     3
 43
0.0
 10
100.28
 20
141.67
 10
101.96
 20
143.08
 10
104.81
 20
145.44
  0
LWPOLYLINE
  5
AB21E
330
1F
100
AcDbEntity
  8
General_Feature_Line
100
AcDbPolyline
 90
     3
 43
0.0
 10
158.45
 20
139.71
 10
161.11
 20
143.08
 10
162.46
 20
144.73
  0
LWPOLYLINE
  5
AB21F
330
1F
100
AcDbEntity
  8
General_Feature_Line
100
AcDbPolyline
 90
     3
 43
0.0
 10
108.29
 20
132.4
 10
110.61
 20
134.53
 10
109.69
 20
135.5
  0
LWPOLYLINE
  5
AB220
330
1F
100
AcDbEntity
  8
Building_Outline_Line
100
AcDbPolyline
 90
     6
 43
0.0
 10
114.89
 20
141.81
 10
116.39
 20
143.08
 10
117.01
 20
143.78
 10
117.59
 20
143.08
 10
121.41
 20
138.63
 10
123.71
 20
140.58
  0
LWPOLYLINE
  5
AB221
330
1F
100
AcDbEntity
  8
Building_Outline_Line
100
AcDbPolyline
 90
     2
 43
0.0
 10
119.71
 20
157.25
 10
124.61
 20
161.38
  0
LWPOLYLINE
  5
AB222
330
1F
100
AcDbEntity
  8
General_Feature_Line
100
AcDbPolyline
 90
     2
 43
0.0
 10
123.56
 20
162.73
 10
124.61
 20
161.38
  0
LWPOLYLINE
  5
AB223
330
1F
100
AcDbEntity
  8
Building_Outline_Line
100
AcDbPolyline
 90
     4
 43
0.0
 10
96.59
 20
150.75
 10
91.56
 20
159.38
 10
93.41
 20
160.23
 10
92.56
 20
162.08
  0
LWPOLYLINE
  5
AB224
330
1F
100
AcDbEntity
  8
General_Feature_Line
100
AcDbPolyline
 90
     2
 43
0.0
 10
108.16
 20
149.78
 10
108.94
 20
148.85
  0
LWPOLYLINE
  5
AB225
330
1F
100
AcDbEntity
  8
General_Feature_Line
100
AcDbPolyline
 90
     3
 43
0.0
 10
97.41
 20
164.33
 10
98.51
 20
161.88
 10
101.96
 20
163.49
  0
LWPOLYLINE
  5
AB226
330
1F
100
AcDbEntity
  8
Building_Division_Line
100
AcDbPolyline
 90
     2
 43
0.0
 10
134.27
 20
169.07
 10
141.26
 20
160.53
  0
LWPOLYLINE
  5
AB227
330
1F
100
AcDbEntity
  8
Building_Outline_Line
100
AcDbPolyline
 90
     3
 43
0.0
 10
131.8
 20
152.79
 10
128.96
 20
150.43
 10
129.74
 20
149.46
  0
LWPOLYLINE
  5
AB228
330
1F
100
AcDbEntity
  8
Network_Or_Polygon_Closing_Geometry_Link_Polygon_Closing_Link_Line
100
AcDbPolyline
 90
     2
 43
0.0
 10
166.36
 20
149.78
 10
170.06
 20
154.73
  0
LWPOLYLINE
  5
AB229
330
1F
100
AcDbEntity
  8
Building_Outline_Line
100
AcDbPolyline
 90
     2
 43
0.0
 10
146.73
 20
163.65
 10
146.06
 20
164.43
  0
LWPOLYLINE
  5
AB22A
330
1F
100
AcDbEntity
  8
Building_Outline_Line
100
AcDbPolyline
 90
     3
 43
0.0
 10
129.74
 20
149.46
 10
130.66
 20
148.33
 10
128.81
 20
146.78
  0
LWPOLYLINE
  5
AB22B
330
1F
100
AcDbEntity
  8
General_Feature_Line
100
AcDbPolyline
 90
     2
 43
0.0
 10
132.46
 20
151.88
 10
131.8
 20
152.79
  0
LWPOLYLINE
  5
AB22C
330
1F
100
AcDbEntity
  8
General_Feature_Line
100
AcDbPolyline
 90
     2
 43
0.0
 10
129.74
 20
149.46
 10
132.46
 20
151.88
  0
LWPOLYLINE
  5
AB22D
330
1F
100
AcDbEntity
  8
General_Feature_Line
100
AcDbPolyline
 90
     2
 43
0.0
 10
131.8
 20
152.79
 10
124.81
 20
161.18
  0
LWPOLYLINE
  5
AB22E
330
1F
100
AcDbEntity
  8
Network_Or_Polygon_Closing_Geometry_Link_Polygon_Closing_Link_Line
100
AcDbPolyline
 90
     2
 43
0.0
 10
113.41
 20
155.08
 10
116.96
 20
158.91
  0
LWPOLYLINE
  5
AB22F
330
1F
100
AcDbEntity
  8
General_Feature_Line
100
AcDbPolyline
 90
     2
 43
0.0
 10
92.56
 20
162.08
 10
97.41
 20
164.33
  0
LWPOLYLINE
  5
AB230
330
1F
100
AcDbEntity
  8
General_Feature_Line
100
AcDbPolyline
 90
     3
 43
0.0
 10
147.01
 20
163.33
 10
150.76
 20
158.68
 10
162.46
 20
144.73
  0
LWPOLYLINE
  5
AB231
330
1F
100
AcDbEntity
  8
Building_Outline_Line
100
AcDbPolyline
 90
     2
 43
0.0
 10
170.06
 20
154.73
 10
178.06
 20
164.23
  0
LWPOLYLINE
  5
AB232
330
1F
100
AcDbEntity
  8
Building_Outline_Line
100
AcDbPolyline
 90
     2
 43
0.0
 10
165.52
 20
160.09
 10
170.06
 20
154.73
  0
LWPOLYLINE
  5
AB233
330
1F
100
AcDbEntity
  8
General_Feature_Line
100
AcDbPolyline
 90
     4
 43
0.0
 10
160.31
 20
166.23
 10
158.46
 20
164.73
 10
163.66
 20
158.53
 10
165.52
 20
160.09
  0
LWPOLYLINE
  5
AB234
330
1F
100
AcDbEntity
  8
General_Feature_Line
100
AcDbPolyline
 90
     2
 43
0.0
 10
166.36
 20
149.78
 10
162.46
 20
144.73
  0
LWPOLYLINE
  5
AB235
330
1F
100
AcDbEntity
  8
General_Feature_Line
100
AcDbPolyline
 90
     6
 43
0.0
 10
151.5
 20
167.5
 10
155.16
 20
163.08
 10
158.56
 20
159.03
 10
161.56
 20
155.48
 10
164.71
 20
151.78
 10
166.36
 20
149.78
  0
LWPOLYLINE
  5
AB236
330
1F
100
AcDbEntity
  8
Building_Outline_Line
100
AcDbPolyline
 90
     2
 43
0.0
 10
160.31
 20
166.23
 10
165.52
 20
160.09
  0
LWPOLYLINE
  5
AB237
330
1F
100
AcDbEntity
  8
General_Feature_Line
100
AcDbPolyline
 90
     2
 43
0.0
 10
84.36
 20
232.31
 10
84.21
 20
233.28
  0
LWPOLYLINE
  5
AB238
330
1F
100
AcDbEntity
  8
General_Feature_Line
100
AcDbPolyline
 90
     5
 43
0.0
 10
101.41
 20
173.33
 10
102.96
 20
169.88
 10
101.31
 20
169.12
 10
96.51
 20
166.93
 10
97.67
 20
164.45
  0
LWPOLYLINE
  5
AB239
330
1F
100
AcDbEntity
  8
General_Feature_Line
100
AcDbPolyline
 90
     3
 43
0.0
 10
82.96
 20
228.68
 10
84.89
 20
228.86
 10
88.91
 20
229.23
  0
LWPOLYLINE
  5
AB23A
330
1F
100
AcDbEntity
  8
Network_Or_Polygon_Closing_Geometry_Link_Polygon_Closing_Link_Line
100
AcDbPolyline
 90
     2
 43
0.0
 10
108.16
 20
221.83
 10
107.48
 20
229.14
  0
LWPOLYLINE
  5
AB23B
330
1F
100
AcDbEntity
  8
General_Feature_Line
100
AcDbPolyline
 90
     2
 43
0.0
 10
131.96
 20
233.68
 10
131.86
 20
234.98
  0
LWPOLYLINE
  5
AB23C
330
1F
100
AcDbEntity
  8
Building_Outline_Line
100
AcDbPolyline
 90
     2
 43
0.0
 10
94.09
 20
234.31
 10
100.01
 20
234.93
  0
LWPOLYLINE
  5
AB23D
330
1F
100
AcDbEntity
  8
Building_Outline_Line
100
AcDbPolyline
 90
     4
 43
0.0
 10
80.76
 20
218.68
 10
82.76
 20
218.93
 10
83.76
 20
211.73
 10
81.81
 20
211.48
  0
LWPOLYLINE
  5
AB23E
330
1F
100
AcDbEntity
  8
General_Feature_Line
100
AcDbPolyline
 90
     3
 43
0.0
 10
94.56
 20
229.78
 10
94.11
 20
234.13
 10
94.09
 20
234.31
  0
LWPOLYLINE
  5
AB23F
330
1F
100
AcDbEntity
  8
General_Feature_Line
100
AcDbPolyline
 90
     2
 43
0.0
 10
82.56
 20
232.13
 10
82.46
 20
233.1
  0
LWPOLYLINE
  5
AB240
330
1F
100
AcDbEntity
  8
Building_Outline_Line
100
AcDbPolyline
 90
     2
 43
0.0
 10
134.56
 20
155.08
 10
131.8
 20
152.79
  0
LWPOLYLINE
  5
AB241
330
1F
100
AcDbEntity
  8
General_Feature_Line
100
AcDbPolyline
 90
     7
 43
0.0
 10
116.96
 20
158.91
 10
117.01
 20
158.78
 10
117.01
 20
158.58
 10
117.06
 20
158.43
 10
117.11
 20
158.33
 10
128.96
 20
144.68
 10
130.81
 20
144.47
  0
LWPOLYLINE
  5
AB242
330
1F
100
AcDbEntity
  8
General_Feature_Line
100
AcDbPolyline
 90
    21
 43
0.0
 10
134.91
 20
184.23
 10
133.66
 20
185.83
 10
130.66
 20
183.18
 10
130.61
 20
183.08
 10
130.21
 20
182.88
 10
130.06
 20
182.88
 10
129.76
 20
182.83
 10
129.36
 20
182.78
 10
129.11
 20
182.83
 10
128.81
 20
182.93
 10
128.61
 20
183.03
 10
128.51
 20
183.13
 10
128.41
 20
183.18
 10
128.11
 20
183.48
 10
128.06
 20
183.58
 10
127.96
 20
183.68
 10
127.91
 20
183.78
 10
127.01
 20
185.68
 10
126.76
 20
186.23
 10
120.76
 20
199.58
 10
118.61
 20
198.63
  0
LWPOLYLINE
  5
AB243
330
1F
100
AcDbEntity
  8
General_Feature_Line
100
AcDbPolyline
 90
     2
 43
0.0
 10
77.96
 20
208.68
 10
77.36
 20
210.07
  0
LWPOLYLINE
  5
AB244
330
1F
100
AcDbEntity
  8
Building_Outline_Line
100
AcDbPolyline
 90
     2
 43
0.0
 10
82.78
 20
203.33
 10
86.99
 20
205.22
  0
LWPOLYLINE
  5
AB245
330
1F
100
AcDbEntity
  8
General_Feature_Line
100
AcDbPolyline
 90
     2
 43
0.0
 10
82.56
 20
232.13
 10
84.36
 20
232.31
  0
LWPOLYLINE
  5
AB246
330
1F
100
AcDbEntity
  8
Building_Outline_Line
100
AcDbPolyline
 90
     2
 43
0.0
 10
88.41
 20
233.72
 10
94.09
 20
234.31
  0
LWPOLYLINE
  5
AB247
330
1F
100
AcDbEntity
  8
Building_Outline_Line
100
AcDbPolyline
 90
     2
 43
0.0
 10
93.06
 20
215.83
 10
93.5
 20
212.74
  0
LWPOLYLINE
  5
AB248
330
1F
100
AcDbEntity
  8
General_Feature_Line
100
AcDbPolyline
 90
     3
 43
0.0
 10
94.33
 20
215.93
 10
94.71
 20
212.88
 10
93.5
 20
212.74
  0
LWPOLYLINE
  5
AB249
330
1F
100
AcDbEntity
  8
Building_Outline_Line
100
AcDbPolyline
 90
     2
 43
0.0
 10
93.5
 20
212.74
 10
93.69
 20
211.44
  0
LWPOLYLINE
  5
AB24A
330
1F
100
AcDbEntity
  8
Building_Outline_Line
100
AcDbPolyline
 90
     4
 43
0.0
 10
93.69
 20
211.44
 10
93.76
 20
210.93
 10
94.61
 20
208.98
 10
96.81
 20
209.78
  0
LWPOLYLINE
  5
AB24B
330
1F
100
AcDbEntity
  8
General_Feature_Line
100
AcDbPolyline
 90
     2
 43
0.0
 10
77.96
 20
208.68
 10
82.11
 20
209.43
  0
LWPOLYLINE
  5
AB24C
330
1F
100
AcDbEntity
  8
Building_Outline_Line
100
AcDbPolyline
 90
     2
 43
0.0
 10
82.46
 20
233.1
 10
84.21
 20
233.28
  0
LWPOLYLINE
  5
AB24D
330
1F
100
AcDbEntity
  8
General_Feature_Line
100
AcDbPolyline
 90
     2
 43
0.0
 10
80.51
 20
220.58
 10
77.36
 20
220.23
  0
LWPOLYLINE
  5
AB24E
330
1F
100
AcDbEntity
  8
Building_Outline_Line
100
AcDbPolyline
 90
     2
 43
0.0
 10
82.11
 20
209.43
 10
84.51
 20
209.78
  0
LWPOLYLINE
  5
AB24F
330
1F
100
AcDbEntity
  8
General_Feature_Line
100
AcDbPolyline
 90
     4
 43
0.0
 10
93.69
 20
211.44
 10
95.76
 20
211.93
 10
98.16
 20
212.48
 10
101.46
 20
213.58
  0
LWPOLYLINE
  5
AB250
330
1F
100
AcDbEntity
  8
General_Feature_Line
100
AcDbPolyline
 90
     2
 43
0.0
 10
88.51
 20
232.73
 10
88.91
 20
229.23
  0
LWPOLYLINE
  5
AB251
330
1F
100
AcDbEntity
  8
General_Feature_Line
100
AcDbPolyline
 90
     2
 43
0.0
 10
77.96
 20
208.68
 10
77.36
 20
208.58
  0
LWPOLYLINE
  5
AB252
330
1F
100
AcDbEntity
  8
General_Feature_Line
100
AcDbPolyline
 90
     3
 43
0.0
 10
77.36
 20
207.18
 10
79.69
 20
202.11
 10
80.01
 20
201.43
  0
LWPOLYLINE
  5
AB253
330
1F
100
AcDbEntity
  8
Road_Or_Track_Public_Line
100
AcDbPolyline
 90
     6
 43
0.0
 10
158.11
 20
234.13
 10
126.11
 20
230.98
 10
119.41
 20
230.23
 10
114.66
 20
229.83
 10
110.06
 20
229.38
 10
107.48
 20
229.14
  0
LWPOLYLINE
  5
AB254
330
1F
100
AcDbEntity
  8
General_Feature_Line
100
AcDbPolyline
 90
     2
 43
0.0
 10
82.56
 20
232.13
 10
82.96
 20
228.68
  0
LWPOLYLINE
  5
AB255
330
1F
100
AcDbEntity
  8
General_Feature_Line
100
AcDbPolyline
 90
    24
 43
0.0
 10
118.16
 20
199.98
 10
120.16
 20
200.88
 10
112.86
 20
217.33
 10
112.81
 20
218.08
 10
112.91
 20
218.48
 10
112.96
 20
218.63
 10
113.11
 20
218.93
 10
113.21
 20
219.03
 10
113.26
 20
219.13
 10
113.36
 20
219.23
 10
113.41
 20
219.33
 10
113.51
 20
219.38
 10
113.56
 20
219.48
 10
113.66
 20
219.53
 10
113.76
 20
219.63
 10
113.91
 20
219.68
 10
114.01
 20
219.78
 10
114.16
 20
219.83
 10
114.26
 20
219.88
 10
114.56
 20
219.98
 10
114.81
 20
220.03
 10
115.26
 20
220.08
 10
147.86
 20
223.58
 10
147.66
 20
225.88
  0
LWPOLYLINE
  5
AB256
330
1F
100
AcDbEntity
  8
General_Feature_Line
100
AcDbPolyline
 90
     2
 43
0.0
 10
77.56
 20
228.13
 10
82.96
 20
228.68
  0
LWPOLYLINE
  5
AB257
330
1F
100
AcDbEntity
  8
General_Feature_Line
100
AcDbPolyline
 90
     2
 43
0.0
 10
84.36
 20
232.31
 10
88.51
 20
232.73
  0
LWPOLYLINE
  5
AB258
330
1F
100
AcDbEntity
  8
General_Feature_Line
100
AcDbPolyline
 90
     2
 43
0.0
 10
94.33
 20
215.93
 10
93.06
 20
215.83
  0
LWPOLYLINE
  5
AB259
330
1F
100
AcDbEntity
  8
Building_Outline_Line
100
AcDbPolyline
 90
     2
 43
0.0
 10
92.21
 20
221.83
 10
80.51
 20
220.58
  0
LWPOLYLINE
  5
AB25A
330
1F
100
AcDbEntity
  8
Building_Division_Line
100
AcDbPolyline
 90
     4
 43
0.0
 10
86.99
 20
205.22
 10
88.91
 20
206.08
 10
93.91
 20
194.93
 10
93.71
 20
194.78
  0
LWPOLYLINE
  5
AB25B
330
1F
100
AcDbEntity
  8
General_Feature_Line
100
AcDbPolyline
 90
    27
 43
0.0
 10
93.58
 20
221.98
 10
96.21
 20
222.03
 10
96.31
 20
221.98
 10
96.46
 20
221.93
 10
96.66
 20
221.83
 10
96.81
 20
221.78
 10
97.01
 20
221.68
 10
97.16
 20
221.58
 10
97.26
 20
221.53
 10
97.56
 20
221.33
 10
97.66
 20
221.28
 10
97.71
 20
221.18
 10
97.81
 20
221.13
 10
98.21
 20
220.73
 10
98.26
 20
220.63
 10
98.36
 20
220.53
 10
98.41
 20
220.43
 10
98.51
 20
220.33
 10
98.61
 20
220.18
 10
98.66
 20
220.03
 10
98.76
 20
219.93
 10
98.81
 20
219.83
 10
98.86
 20
219.68
 10
98.96
 20
219.48
 10
99.01
 20
219.33
 10
100.26
 20
216.4
 10
101.46
 20
213.58
  0
LWPOLYLINE
  5
AB25C
330
1F
100
AcDbEntity
  8
General_Feature_Line
100
AcDbPolyline
 90
     5
 43
0.0
 10
85.96
 20
187.19
 10
79.81
 20
200.58
 10
79.11
 20
201.93
 10
77.96
 20
203.48
 10
77.36
 20
204.19
  0
LWPOLYLINE
  5
AB25D
330
1F
100
AcDbEntity
  8
General_Feature_Line
100
AcDbPolyline
 90
     2
 43
0.0
 10
80.76
 20
218.68
 10
81.81
 20
211.48
  0
LWPOLYLINE
  5
AB25E
330
1F
100
AcDbEntity
  8
General_Feature_Line
100
AcDbPolyline
 90
     7
 43
0.0
 10
105.16
 20
193.78
 10
104.91
 20
194.58
 10
105.16
 20
195.53
 10
99.31
 20
208.68
 10
97.71
 20
209.18
 10
97.36
 20
210.08
 10
96.81
 20
209.78
  0
LWPOLYLINE
  5
AB25F
330
1F
100
AcDbEntity
  8
Building_Outline_Line
100
AcDbPolyline
 90
     2
 43
0.0
 10
92.21
 20
221.83
 10
93.06
 20
215.83
  0
LWPOLYLINE
  5
AB260
330
1F
100
AcDbEntity
  8
Building_Division_Line
100
AcDbPolyline
 90
     4
 43
0.0
 10
84.51
 20
209.78
 10
87.26
 20
210.28
 10
90.66
 20
210.88
 10
93.69
 20
211.44
  0
LWPOLYLINE
  5
AB261
330
1F
100
AcDbEntity
  8
Building_Outline_Line
100
AcDbPolyline
 90
     2
 43
0.0
 10
81.81
 20
211.48
 10
82.11
 20
209.43
  0
LWPOLYLINE
  5
AB262
330
1F
100
AcDbEntity
  8
Building_Outline_Line
100
AcDbPolyline
 90
     2
 43
0.0
 10
80.51
 20
220.58
 10
80.76
 20
218.68
  0
LWPOLYLINE
  5
AB263
330
1F
100
AcDbEntity
  8
General_Feature_Line
100
AcDbPolyline
 90
     2
 43
0.0
 10
125.61
 20
233.13
 10
131.96
 20
233.68
  0
LWPOLYLINE
  5
AB264
330
1F
100
AcDbEntity
  8
General_Feature_Line
100
AcDbPolyline
 90
     3
 43
0.0
 10
138.56
 20
234.38
 10
142.21
 20
234.73
 10
142.71
 20
234.98
  0
LWPOLYLINE
  5
AB265
330
1F
100
AcDbEntity
  8
General_Feature_Line
100
AcDbPolyline
 90
     2
 43
0.0
 10
92.21
 20
221.83
 10
93.58
 20
221.98
  0
LWPOLYLINE
  5
AB266
330
1F
100
AcDbEntity
  8
General_Feature_Line
100
AcDbPolyline
 90
     2
 43
0.0
 10
119.36
 20
232.43
 10
125.61
 20
233.13
  0
LWPOLYLINE
  5
AB267
330
1F
100
AcDbEntity
  8
Road_Or_Track_Public_Line
100
AcDbPolyline
 90
     4
 43
0.0
 10
107.48
 20
229.14
 10
105.16
 20
228.93
 10
102.26
 20
228.63
 10
98.18
 20
228.23
  0
LWPOLYLINE
  5
AB268
330
1F
100
AcDbEntity
  8
General_Feature_Line
100
AcDbPolyline
 90
     2
 43
0.0
 10
86.99
 20
205.22
 10
87.89
 20
203.14
  0
LWPOLYLINE
  5
AB269
330
1F
100
AcDbEntity
  8
Network_Or_Polygon_Closing_Geometry_Link_Polygon_Closing_Link_Line
100
AcDbPolyline
 90
     2
 43
0.0
 10
147.66
 20
225.88
 10
152.16
 20
226.23
  0
LWPOLYLINE
  5
AB26A
330
1F
100
AcDbEntity
  8
General_Feature_Line
100
AcDbPolyline
 90
     2
 43
0.0
 10
77.56
 20
228.13
 10
77.36
 20
229.59
  0
LWPOLYLINE
  5
AB26B
330
1F
100
AcDbEntity
  8
Building_Outline_Line
100
AcDbPolyline
 90
     3
 43
0.0
 10
140.26
 20
158.09
 10
139.46
 20
159.08
 10
136.56
 20
156.68
  0
LWPOLYLINE
  5
AB26C
330
1F
100
AcDbEntity
  8
General_Feature_Line
100
AcDbPolyline
 90
     2
 43
0.0
 10
94.56
 20
229.78
 10
100.06
 20
230.23
  0
LWPOLYLINE
  5
AB26D
330
1F
100
AcDbEntity
  8
Building_Outline_Line
100
AcDbPolyline
 90
     2
 43
0.0
 10
101.31
 20
154.58
 10
108.34
 20
160.4
  0
LWPOLYLINE
  5
AB26E
330
1F
100
AcDbEntity
  8
General_Feature_Line
100
AcDbPolyline
 90
     2
 43
0.0
 10
88.91
 20
229.23
 10
94.56
 20
229.78
  0
LWPOLYLINE
  5
AB26F
330
1F
100
AcDbEntity
  8
General_Feature_Line
100
AcDbPolyline
 90
     2
 43
0.0
 10
93.58
 20
221.98
 10
94.33
 20
215.93
  0
LWPOLYLINE
  5
AB270
330
1F
100
AcDbEntity
  8
General_Feature_Line
100
AcDbPolyline
 90
     2
 43
0.0
 10
112.76
 20
153.43
 10
108.16
 20
149.78
  0
LWPOLYLINE
  5
AB271
330
1F
100
AcDbEntity
  8
General_Feature_Line
100
AcDbPolyline
 90
     2
 43
0.0
 10
113.51
 20
152.63
 10
112.76
 20
153.43
  0
LWPOLYLINE
  5
AB272
330
1F
100
AcDbEntity
  8
General_Feature_Line
100
AcDbPolyline
 90
     2
 43
0.0
 10
94.11
 20
188.73
 10
94.41
 20
188.88
  0
LWPOLYLINE
  5
AB273
330
1F
100
AcDbEntity
  8
Building_Outline_Line
100
AcDbPolyline
 90
     2
 43
0.0
 10
84.21
 20
233.28
 10
88.41
 20
233.72
  0
LWPOLYLINE
  5
AB274
330
1F
100
AcDbEntity
  8
General_Feature_Line
100
AcDbPolyline
 90
     2
 43
0.0
 10
92.41
 20
174.98
 10
92.81
 20
174.23
  0
LWPOLYLINE
  5
AB275
330
1F
100
AcDbEntity
  8
Building_Outline_Line
100
AcDbPolyline
 90
     4
 43
0.0
 10
84.51
 20
209.78
 10
85.01
 20
208.68
 10
78.31
 20
207.38
 10
80.56
 20
202.33
  0
LWPOLYLINE
  5
AB276
330
1F
100
AcDbEntity
  8
General_Feature_Line
100
AcDbPolyline
 90
     3
 43
0.0
 10
80.61
 20
201.68
 10
80.36
 20
202.28
 10
80.56
 20
202.33
  0
LWPOLYLINE
  5
AB277
330
1F
100
AcDbEntity
  8
General_Feature_Line
100
AcDbPolyline
 90
     2
 43
0.0
 10
78.26
 20
184.88
 10
78.76
 20
183.83
  0
LWPOLYLINE
  5
AB278
330
1F
100
AcDbEntity
  8
General_Feature_Line
100
AcDbPolyline
 90
     2
 43
0.0
 10
132.46
 20
151.88
 10
135.21
 20
154.33
  0
LWPOLYLINE
  5
AB279
330
1F
100
AcDbEntity
  8
General_Feature_Line
100
AcDbPolyline
 90
     2
 43
0.0
 10
91.71
 20
193.87
 10
94.11
 20
188.73
  0
LWPOLYLINE
  5
AB27A
330
1F
100
AcDbEntity
  8
General_Feature_Line
100
AcDbPolyline
 90
     3
 43
0.0
 10
85.56
 20
191.23
 10
85.41
 20
190.98
 10
87.76
 20
185.83
  0
LWPOLYLINE
  5
AB27B
330
1F
100
AcDbEntity
  8
General_Feature_Line
100
AcDbPolyline
 90
     2
 43
0.0
 10
85.23
 20
197.72
 10
83.43
 20
197.0
  0
LWPOLYLINE
  5
AB27C
330
1F
100
AcDbEntity
  8
Road_Or_Track_Public_Line
100
AcDbPolyline
 90
    26
 43
0.0
 10
128.06
 20
177.53
 10
127.66
 20
177.63
 10
127.36
 20
177.73
 10
126.86
 20
177.98
 10
126.76
 20
178.08
 10
126.61
 20
178.18
 10
126.41
 20
178.28
 10
126.36
 20
178.38
 10
126.26
 20
178.43
 10
126.21
 20
178.53
 10
126.11
 20
178.58
 10
126.06
 20
178.68
 10
125.96
 20
178.73
 10
125.91
 20
178.83
 10
125.76
 20
178.98
 10
125.56
 20
179.28
 10
125.31
 20
179.78
 10
108.01
 20
218.78
 10
107.86
 20
219.23
 10
107.81
 20
219.43
 10
107.76
 20
219.83
 10
107.71
 20
220.38
 10
107.76
 20
220.78
 10
107.81
 20
220.98
 10
107.96
 20
221.43
 10
108.16
 20
221.83
  0
LWPOLYLINE
  5
AB27D
330
1F
100
AcDbEntity
  8
General_Feature_Line
100
AcDbPolyline
 90
     2
 43
0.0
 10
88.51
 20
232.73
 10
88.41
 20
233.72
  0
LWPOLYLINE
  5
AB27E
330
1F
100
AcDbEntity
  8
Building_Outline_Line
100
AcDbPolyline
 90
     2
 43
0.0
 10
100.81
 20
178.83
 10
102.96
 20
174.03
  0
LWPOLYLINE
  5
AB27F
330
1F
100
AcDbEntity
  8
General_Feature_Line
100
AcDbPolyline
 90
     2
 43
0.0
 10
129.53
 20
165.11
 10
136.56
 20
156.68
  0
LWPOLYLINE
  5
AB280
330
1F
100
AcDbEntity
  8
General_Feature_Line
100
AcDbPolyline
 90
     2
 43
0.0
 10
104.11
 20
146.28
 10
104.81
 20
145.44
  0
LWPOLYLINE
  5
AB281
330
1F
100
AcDbEntity
  8
Network_Or_Polygon_Closing_Geometry_Link_Polygon_Closing_Link_Line
100
AcDbPolyline
 90
     2
 43
0.0
 10
98.71
 20
222.48
 10
98.18
 20
228.23
  0
LWPOLYLINE
  5
AB282
330
1F
100
AcDbEntity
  8
General_Feature_Line
100
AcDbPolyline
 90
     4
 43
0.0
 10
82.46
 20
145.93
 10
81.66
 20
147.13
 10
78.61
 20
151.73
 10
77.36
 20
153.57
  0
LWPOLYLINE
  5
AB283
330
1F
100
AcDbEntity
  8
General_Feature_Line
100
AcDbPolyline
 90
     3
 43
0.0
 10
242.34
 20
154.63
 10
237.18
 20
160.9
 10
236.96
 20
161.19
  0
LWPOLYLINE
  5
AB284
330
1F
100
AcDbEntity
  8
Building_Division_Line
100
AcDbPolyline
 90
     2
 43
0.0
 10
181.39
 20
204.0
 10
178.11
 20
208.03
  0
LWPOLYLINE
  5
AB285
330
1F
100
AcDbEntity
  8
General_Feature_Line
100
AcDbPolyline
 90
     2
 43
0.0
 10
172.06
 20
181.88
 10
175.26
 20
178.23
  0
LWPOLYLINE
  5
AB286
330
1F
100
AcDbEntity
  8
Building_Outline_Line
100
AcDbPolyline
 90
     2
 43
0.0
 10
185.56
 20
210.78
 10
183.91
 20
212.78
  0
LWPOLYLINE
  5
AB287
330
1F
100
AcDbEntity
  8
General_Feature_Line
100
AcDbPolyline
 90
     4
 43
0.0
 10
194.46
 20
220.78
 10
192.36
 20
220.78
 10
172.86
 20
233.23
 10
172.96
 20
234.98
  0
LWPOLYLINE
  5
AB288
330
1F
100
AcDbEntity
  8
Building_Outline_Line
100
AcDbPolyline
 90
     4
 43
0.0
 10
166.86
 20
190.18
 10
169.01
 20
187.68
 10
167.91
 20
186.73
 10
170.11
 20
184.18
  0
LWPOLYLINE
  5
AB289
330
1F
100
AcDbEntity
  8
Building_Outline_Line
100
AcDbPolyline
 90
     2
 43
0.0
 10
170.11
 20
184.18
 10
168.43
 20
182.81
  0
LWPOLYLINE
  5
AB28A
330
1F
100
AcDbEntity
  8
Building_Outline_Line
100
AcDbPolyline
 90
     4
 43
0.0
 10
173.91
 20
192.53
 10
177.44
 20
195.37
 10
184.07
 20
200.7
 10
185.66
 20
201.98
  0
LWPOLYLINE
  5
AB28B
330
1F
100
AcDbEntity
  8
Building_Outline_Line
100
AcDbPolyline
 90
     3
 43
0.0
 10
185.56
 20
210.78
 10
191.06
 20
215.28
 10
193.14
 20
212.78
  0
LWPOLYLINE
  5
AB28C
330
1F
100
AcDbEntity
  8
Road_Or_Track_Public_Line
100
AcDbPolyline
 90
     3
 43
0.0
 10
168.96
 20
231.68
 10
171.11
 20
234.78
 10
172.46
 20
234.98
  0
LWPOLYLINE
  5
AB28D
330
1F
100
AcDbEntity
  8
Building_Outline_Line
100
AcDbPolyline
 90
     2
 43
0.0
 10
183.91
 20
212.78
 10
181.36
 20
210.68
  0
LWPOLYLINE
  5
AB28E
330
1F
100
AcDbEntity
  8
General_Feature_Line
100
AcDbPolyline
 90
     9
 43
0.0
 10
158.77
 20
229.0
 10
159.01
 20
229.43
 10
159.41
 20
230.28
 10
159.66
 20
230.78
 10
160.06
 20
231.78
 10
160.71
 20
232.98
 10
160.96
 20
233.38
 10
161.51
 20
234.18
 10
161.76
 20
234.63
  0
LWPOLYLINE
  5
AB28F
330
1F
100
AcDbEntity
  8
General_Feature_Line
100
AcDbPolyline
 90
     2
 43
0.0
 10
191.39
 20
197.65
 10
189.91
 20
196.38
  0
LWPOLYLINE
  5
AB290
330
1F
100
AcDbEntity
  8
Network_Or_Polygon_Closing_Geometry_Link_Polygon_Closing_Link_Line
100
AcDbPolyline
 90
     2
 43
0.0
 10
159.99
 20
202.79
 10
167.41
 20
209.83
  0
LWPOLYLINE
  5
AB291
330
1F
100
AcDbEntity
  8
Road_Or_Track_Public_Line
100
AcDbPolyline
 90
    23
 43
0.0
 10
164.36
 20
234.83
 10
163.76
 20
233.93
 10
163.16
 20
232.98
 10
162.26
 20
231.58
 10
161.61
 20
230.13
 10
161.16
 20
229.18
 10
160.96
 20
228.53
 10
160.66
 20
227.08
 10
160.51
 20
225.68
 10
160.46
 20
224.13
 10
160.41
 20
222.53
 10
160.41
 20
221.03
 10
160.31
 20
219.43
 10
160.26
 20
217.98
 10
160.31
 20
216.23
 10
160.21
 20
214.73
 10
160.16
 20
213.13
 10
160.11
 20
211.38
 10
160.11
 20
210.08
 10
160.06
 20
209.73
 10
159.96
 20
208.48
 10
159.96
 20
203.68
 10
159.99
 20
202.79
  0
LWPOLYLINE
  5
AB292
330
1F
100
AcDbEntity
  8
Road_Or_Track_Public_Line
100
AcDbPolyline
 90
    16
 43
0.0
 10
189.86
 20
227.04
 10
189.21
 20
227.93
 10
188.61
 20
228.63
 10
188.01
 20
229.28
 10
187.31
 20
229.93
 10
186.66
 20
230.58
 10
185.16
 20
231.68
 10
184.41
 20
232.18
 10
182.81
 20
233.08
 10
181.96
 20
233.48
 10
180.66
 20
233.98
 10
179.76
 20
234.28
 10
178.91
 20
234.48
 10
178.01
 20
234.68
 10
177.06
 20
234.88
 10
176.48
 20
234.94
  0
LWPOLYLINE
  5
AB293
330
1F
100
AcDbEntity
  8
Building_Outline_Line
100
AcDbPolyline
 90
     2
 43
0.0
 10
178.11
 20
208.03
 10
171.48
 20
202.61
  0
LWPOLYLINE
  5
AB294
330
1F
100
AcDbEntity
  8
General_Feature_Line
100
AcDbPolyline
 90
     2
 43
0.0
 10
158.11
 20
234.13
 10
161.76
 20
234.63
  0
LWPOLYLINE
  5
AB295
330
1F
100
AcDbEntity
  8
Building_Outline_Line
100
AcDbPolyline
 90
     2
 43
0.0
 10
183.01
 20
205.33
 10
181.39
 20
204.0
  0
LWPOLYLINE
  5
AB296
330
1F
100
AcDbEntity
  8
Road_Or_Track_Public_Line
100
AcDbPolyline
 90
     2
 43
0.0
 10
176.48
 20
234.94
 10
176.16
 20
234.98
  0
LWPOLYLINE
  5
AB297
330
1F
100
AcDbEntity
  8
Road_Or_Track_Public_Line
100
AcDbPolyline
 90
    21
 43
0.0
 10
167.41
 20
209.83
 10
166.91
 20
210.03
 10
166.66
 20
210.23
 10
166.41
 20
210.48
 10
166.31
 20
210.68
 10
166.21
 20
210.93
 10
166.16
 20
211.13
 10
166.11
 20
211.38
 10
166.11
 20
211.61
 10
166.06
 20
211.83
 10
166.01
 20
211.83
 10
166.01
 20
212.08
 10
166.56
 20
226.53
 10
166.61
 20
226.63
 10
166.81
 20
227.43
 10
166.91
 20
227.73
 10
167.01
 20
228.13
 10
167.56
 20
229.33
 10
168.16
 20
230.53
 10
168.61
 20
231.18
 10
168.96
 20
231.68
  0
LWPOLYLINE
  5
AB298
330
1F
100
AcDbEntity
  8
Road_Or_Track_Public_Line
100
AcDbPolyline
 90
    11
 43
0.0
 10
171.31
 20
205.23
 10
168.21
 20
202.58
 10
166.86
 20
201.43
 10
166.81
 20
201.33
 10
166.71
 20
201.28
 10
166.66
 20
201.18
 10
166.56
 20
201.08
 10
166.51
 20
200.93
 10
166.46
 20
200.83
 10
166.41
 20
200.58
 10
166.36
 20
200.18
  0
LWPOLYLINE
  5
AB299
330
1F
100
AcDbEntity
  8
Building_Division_Line
100
AcDbPolyline
 90
     2
 43
0.0
 10
191.39
 20
197.65
 10
199.41
 20
204.23
  0
LWPOLYLINE
  5
AB29A
330
1F
100
AcDbEntity
  8
Building_Outline_Line
100
AcDbPolyline
 90
     2
 43
0.0
 10
210.41
 20
168.73
 10
200.81
 20
161.18
  0
LWPOLYLINE
  5
AB29B
330
1F
100
AcDbEntity
  8
Building_Outline_Line
100
AcDbPolyline
 90
     2
 43
0.0
 10
168.43
 20
182.81
 10
164.85
 20
179.89
  0
LWPOLYLINE
  5
AB29C
330
1F
100
AcDbEntity
  8
Building_Division_Line
100
AcDbPolyline
 90
     3
 43
0.0
 10
208.16
 20
176.08
 10
216.06
 20
182.43
 10
216.66
 20
182.93
  0
LWPOLYLINE
  5
AB29D
330
1F
100
AcDbEntity
  8
Building_Outline_Line
100
AcDbPolyline
 90
     2
 43
0.0
 10
216.77
 20
165.17
 10
212.56
 20
170.53
  0
LWPOLYLINE
  5
AB29E
330
1F
100
AcDbEntity
  8
General_Feature_Line
100
AcDbPolyline
 90
     2
 43
0.0
 10
216.77
 20
165.17
 10
215.51
 20
164.23
  0
LWPOLYLINE
  5
AB29F
330
1F
100
AcDbEntity
  8
General_Feature_Line
100
AcDbPolyline
 90
     3
 43
0.0
 10
269.31
 20
208.68
 10
264.66
 20
205.53
 10
263.81
 20
204.93
  0
LWPOLYLINE
  5
AB2A0
330
1F
100
AcDbEntity
  8
Building_Outline_Line
100
AcDbPolyline
 90
     2
 43
0.0
 10
252.66
 20
175.18
 10
256.12
 20
170.78
  0
LWPOLYLINE
  5
AB2A1
330
1F
100
AcDbEntity
  8
Building_Outline_Line
100
AcDbPolyline
 90
     2
 43
0.0
 10
247.81
 20
233.83
 10
247.11
 20
234.5
  0
LWPOLYLINE
  5
AB2A2
330
1F
100
AcDbEntity
  8
General_Feature_Line
100
AcDbPolyline
 90
    20
 43
0.0
 10
263.81
 20
204.93
 10
265.31
 20
203.13
 10
265.91
 20
202.53
 10
266.16
 20
202.18
 10
266.41
 20
201.78
 10
266.61
 20
201.38
 10
266.91
 20
200.58
 10
267.01
 20
200.18
 10
267.11
 20
199.28
 10
267.11
 20
198.88
 10
267.01
 20
198.08
 10
266.91
 20
197.68
 10
266.76
 20
197.23
 10
266.56
 20
196.83
 10
266.36
 20
196.48
 10
265.86
 20
195.78
 10
265.56
 20
195.43
 10
265.26
 20
195.13
 10
264.81
 20
194.83
 10
247.91
 20
181.13
  0
LWPOLYLINE
  5
AB2A3
330
1F
100
AcDbEntity
  8
General_Feature_Line
100
AcDbPolyline
 90
    32
 43
0.0
 10
249.52
 20
220.28
 10
249.76
 20
220.28
 10
250.46
 20
220.18
 10
250.81
 20
220.08
 10
251.16
 20
219.93
 10
251.76
 20
219.53
 10
252.26
 20
219.13
 10
253.86
 20
217.03
 10
254.01
 20
216.83
 10
254.11
 20
216.68
 10
254.16
 20
216.43
 10
254.21
 20
216.23
 10
254.21
 20
216.03
 10
254.16
 20
215.63
 10
253.96
 20
215.23
 10
253.81
 20
215.03
 10
250.51
 20
212.28
 10
247.51
 20
216.38
 10
232.06
 20
204.48
 10
242.16
 20
191.88
 10
257.21
 20
203.58
 10
254.31
 20
207.48
 10
257.61
 20
210.33
 10
257.96
 20
210.33
 10
258.31
 20
210.28
 10
258.81
 20
210.13
 10
259.41
 20
209.83
 10
259.71
 20
209.63
 10
259.96
 20
209.43
 10
260.21
 20
209.18
 10
260.46
 20
208.88
 10
263.81
 20
204.93
  0
LWPOLYLINE
  5
AB2A4
330
1F
100
AcDbEntity
  8
General_Feature_Line
100
AcDbPolyline
 90
     2
 43
0.0
 10
255.21
 20
170.08
 10
243.26
 20
185.48
  0
LWPOLYLINE
  5
AB2A5
330
1F
100
AcDbEntity
  8
Building_Outline_Line
100
AcDbPolyline
 90
     2
 43
0.0
 10
235.11
 20
161.78
 10
230.76
 20
167.58
  0
LWPOLYLINE
  5
AB2A6
330
1F
100
AcDbEntity
  8
Building_Outline_Line
100
AcDbPolyline
 90
     3
 43
0.0
 10
219.46
 20
158.43
 10
220.66
 20
159.38
 10
221.01
 20
159.78
  0
LWPOLYLINE
  5
AB2A7
330
1F
100
AcDbEntity
  8
General_Feature_Line
100
AcDbPolyline
 90
     2
 43
0.0
 10
225.41
 20
215.53
 10
224.31
 20
214.68
  0
LWPOLYLINE
  5
AB2A8
330
1F
100
AcDbEntity
  8
General_Feature_Line
100
AcDbPolyline
 90
     3
 43
0.0
 10
219.51
 20
208.98
 10
222.21
 20
210.68
 10
225.66
 20
212.88
  0
LWPOLYLINE
  5
AB2A9
330
1F
100
AcDbEntity
  8
Building_Outline_Line
100
AcDbPolyline
 90
     2
 43
0.0
 10
217.91
 20
181.38
 10
216.66
 20
182.93
  0
LWPOLYLINE
  5
AB2AA
330
1F
100
AcDbEntity
  8
Building_Outline_Line
100
AcDbPolyline
 90
     2
 43
0.0
 10
221.01
 20
177.48
 10
217.91
 20
181.38
  0
LWPOLYLINE
  5
AB2AB
330
1F
100
AcDbEntity
  8
General_Feature_Line
100
AcDbPolyline
 90
     4
 43
0.0
 10
230.76
 20
167.58
 10
231.56
 20
168.28
 10
228.51
 20
172.13
 10
226.51
 20
170.63
  0
LWPOLYLINE
  5
AB2AC
330
1F
100
AcDbEntity
  8
General_Feature_Line
100
AcDbPolyline
 90
     4
 43
0.0
 10
225.21
 20
172.23
 10
227.16
 20
173.73
 10
224.26
 20
177.53
 10
222.26
 20
175.98
  0
LWPOLYLINE
  5
AB2AD
330
1F
100
AcDbEntity
  8
Building_Outline_Line
100
AcDbPolyline
 90
     2
 43
0.0
 10
225.21
 20
172.23
 10
222.26
 20
175.98
  0
LWPOLYLINE
  5
AB2AE
330
1F
100
AcDbEntity
  8
General_Feature_Line
100
AcDbPolyline
 90
     2
 43
0.0
 10
252.66
 20
175.18
 10
247.91
 20
181.13
  0
LWPOLYLINE
  5
AB2AF
330
1F
100
AcDbEntity
  8
Building_Division_Line
100
AcDbPolyline
 90
     2
 43
0.0
 10
221.01
 20
159.78
 10
229.59
 20
166.65
  0
LWPOLYLINE
  5
AB2B0
330
1F
100
AcDbEntity
  8
Building_Outline_Line
100
AcDbPolyline
 90
     2
 43
0.0
 10
247.11
 20
234.5
 10
224.56
 20
216.56
  0
LWPOLYLINE
  5
AB2B1
330
1F
100
AcDbEntity
  8
General_Feature_Line
100
AcDbPolyline
 90
     4
 43
0.0
 10
262.01
 20
161.78
 10
261.36
 20
161.38
 10
254.76
 20
169.68
 10
255.21
 20
170.08
  0
LWPOLYLINE
  5
AB2B2
330
1F
100
AcDbEntity
  8
Terrain_And_Height_Spot_Height_Point
100
AcDbPolyline
 90
     2
 43
0.0
 10
130.06
 20
227.605
 10
130.06
 20
229.155
  0
LWPOLYLINE
  5
AB2B3
330
1F
100
AcDbEntity
  8
Terrain_And_Height_Spot_Height_Point
100
AcDbPolyline
 90
     2
 43
0.0
 10
129.285
 20
228.38
 10
130.835
 20
228.38
  0
LWPOLYLINE
  5
AB2B4
330
1F
100
AcDbEntity
  8
Terrain_And_Height_Spot_Height_Point
100
AcDbPolyline
 90
     2
 43
0.0
 10
193.81
 20
229.255
 10
193.81
 20
230.805
  0
LWPOLYLINE
  5
AB2B5
330
1F
100
AcDbEntity
  8
Terrain_And_Height_Spot_Height_Point
100
AcDbPolyline
 90
     2
 43
0.0
 10
193.035
 20
230.03
 10
194.585
 20
230.03
  0
POINT
  5
AB2B6
330
1F
100
AcDbEntity
  8
Structure_Point
100
AcDbPoint
 10
184.26
 20
217.08
 30
0.0
  0
POINT
  5
AB2B7
330
1F
100
AcDbEntity
  8
Structure_Point
100
AcDbPoint
 10
183.51
 20
217.98
 30
0.0
  0
POINT
  5
AB2B8
330
1F
100
AcDbEntity
  8
Structure_Point
100
AcDbPoint
 10
182.76
 20
217.53
 30
0.0
  0
POINT
  5
AB2B9
330
1F
100
AcDbEntity
  8
Structure_Point
100
AcDbPoint
 10
180.41
 20
221.28
 30
0.0
  0
POINT
  5
AB2BA
330
1F
100
AcDbEntity
  8
Structure_Point
100
AcDbPoint
 10
183.61
 20
216.58
 30
0.0
  0
POINT
  5
AB2BB
330
1F
100
AcDbEntity
  8
Roadside_Structure_Point
100
AcDbPoint
 10
179.46
 20
163.1
 30
0.0
  0
POINT
  5
AB2BC
330
1F
100
AcDbEntity
  8
Roadside_Structure_Point
100
AcDbPoint
 10
180.16
 20
162.53
 30
0.0
  0
POINT
  5
AB2BD
330
1F
100
AcDbEntity
  8
Roadside_Structure_Point
100
AcDbPoint
 10
181.01
 20
161.84
 30
0.0
  0
POINT
  5
AB2BE
330
1F
100
AcDbEntity
  8
Roadside_Structure_Point
100
AcDbPoint
 10
181.79
 20
161.21
 30
0.0
  0
LWPOLYLINE
  5
AB2BF
330
1F
100
AcDbEntity
  8
Terrain_And_Height_Spot_Height_Point
100
AcDbPolyline
 90
     2
 43
0.0
 10
230.66
 20
186.455
 10
230.66
 20
188.005
  0
LWPOLYLINE
  5
AB2C0
330
1F
100
AcDbEntity
  8
Terrain_And_Height_Spot_Height_Point
100
AcDbPolyline
 90
     2
 43
0.0
 10
229.885
 20
187.23
 10
231.435
 20
187.23
  0
LWPOLYLINE
  5
AB2C1
330
1F
100
AcDbEntity
  8
UKPM - grid
100
AcDbPolyline
 90
     5
 43
0.0
 10
77.36
 20
34.98
 10
77.36
 20
234.98
 10
277.36
 20
234.98
 10
277.36
 20
34.98
 10
77.36
 20
34.98
  0
LWPOLYLINE
  5
AB2C2
330
1F
100
AcDbEntity
  8
UKPM - scale and labels
100
AcDbPolyline
 90
     2
 43
0.0
 10
152.36
 20
4.48
 10
212.36
 20
4.48
  0
LWPOLYLINE
  5
AB2C3
330
1F
100
AcDbEntity
  8
UKPM - scale and labels
100
AcDbPolyline
 90
     2
 43
0.0
 10
152.36
 20
6.88
 10
152.36
 20
2.08
  0
LWPOLYLINE
  5
AB2C4
330
1F
100
AcDbEntity
  8
UKPM - scale and labels
100
AcDbPolyline
 90
     2
 43
0.0
 10
162.36
 20
6.88
 10
162.36
 20
2.08
  0
LWPOLYLINE
  5
AB2C5
330
1F
100
AcDbEntity
  8
UKPM - scale and labels
100
AcDbPolyline
 90
     2
 43
0.0
 10
172.36
 20
6.88
 10
172.36
 20
2.08
  0
LWPOLYLINE
  5
AB2C6
330
1F
100
AcDbEntity
  8
UKPM - scale and labels
100
AcDbPolyline
 90
     2
 43
0.0
 10
182.36
 20
6.88
 10
182.36
 20
2.08
  0
LWPOLYLINE
  5
AB2C7
330
1F
100
AcDbEntity
  8
UKPM - scale and labels
100
AcDbPolyline
 90
     2
 43
0.0
 10
192.36
 20
6.88
 10
192.36
 20
2.08
  0
LWPOLYLINE
  5
AB2C8
330
1F
100
AcDbEntity
  8
UKPM - scale and labels
100
AcDbPolyline
 90
     2
 43
0.0
 10
202.36
 20
6.88
 10
202.36
 20
2.08
  0
LWPOLYLINE
  5
AB2C9
330
1F
100
AcDbEntity
  8
UKPM - scale and labels
100
AcDbPolyline
 90
     2
 43
0.0
 10
212.36
 20
6.88
 10
212.36
 20
2.08
  0
LWPOLYLINE
  5
AB2CA
330
1F
100
AcDbEntity
  8
UKPM - scale and labels
100
AcDbPolyline
 90
     2
 43
0.0
 10
153.36
 20
6.88
 10
153.36
 20
4.48
  0
LWPOLYLINE
  5
AB2CB
330
1F
100
AcDbEntity
  8
UKPM - scale and labels
100
AcDbPolyline
 90
     2
 43
0.0
 10
154.36
 20
6.88
 10
154.36
 20
4.48
  0
LWPOLYLINE
  5
AB2CC
330
1F
100
AcDbEntity
  8
UKPM - scale and labels
100
AcDbPolyline
 90
     2
 43
0.0
 10
155.36
 20
6.88
 10
155.36
 20
4.48
  0
LWPOLYLINE
  5
AB2CD
330
1F
100
AcDbEntity
  8
UKPM - scale and labels
100
AcDbPolyline
 90
     2
 43
0.0
 10
156.36
 20
6.88
 10
156.36
 20
4.48
  0
LWPOLYLINE
  5
AB2CE
330
1F
100
AcDbEntity
  8
UKPM - scale and labels
100
AcDbPolyline
 90
     2
 43
0.0
 10
157.86
 20
6.88
 10
157.86
 20
4.48
  0
LWPOLYLINE
  5
AB2CF
330
1F
100
AcDbEntity
  8
UKPM - scale and labels
100
AcDbPolyline
 90
     2
 43
0.0
 10
158.36
 20
6.88
 10
158.36
 20
4.48
  0
LWPOLYLINE
  5
AB2D0
330
1F
100
AcDbEntity
  8
UKPM - scale and labels
100
AcDbPolyline
 90
     2
 43
0.0
 10
158.86
 20
6.88
 10
158.86
 20
4.48
  0
LWPOLYLINE
  5
AB2D1
330
1F
100
AcDbEntity
  8
UKPM - scale and labels
100
AcDbPolyline
 90
     2
 43
0.0
 10
159.36
 20
6.88
 10
159.36
 20
4.48
  0
LWPOLYLINE
  5
AB2D2
330
1F
100
AcDbEntity
  8
UKPM - scale and labels
100
AcDbPolyline
 90
     2
 43
0.0
 10
159.86
 20
6.88
 10
159.86
 20
4.48
  0
LWPOLYLINE
  5
AB2D3
330
1F
100
AcDbEntity
  8
UKPM - scale and labels
100
AcDbPolyline
 90
     2
 43
0.0
 10
160.36
 20
6.88
 10
160.36
 20
4.48
  0
LWPOLYLINE
  5
AB2D4
330
1F
100
AcDbEntity
  8
UKPM - scale and labels
100
AcDbPolyline
 90
     2
 43
0.0
 10
160.86
 20
6.88
 10
160.86
 20
4.48
  0
LWPOLYLINE
  5
AB2D5
330
1F
100
AcDbEntity
  8
UKPM - scale and labels
100
AcDbPolyline
 90
     2
 43
0.0
 10
161.36
 20
6.88
 10
161.36
 20
4.48
  0
LWPOLYLINE
  5
AB2D6
330
1F
100
AcDbEntity
  8
UKPM - scale and labels
100
AcDbPolyline
 90
     2
 43
0.0
 10
161.86
 20
6.88
 10
161.86
 20
4.48
  0
LWPOLYLINE
  5
AB2D7
330
1F
100
AcDbEntity
  8
UKPM - scale and labels
100
AcDbPolyline
 90
     2
 43
0.0
 10
157.36
 20
6.88
 10
157.36
 20
2.08
  0
LWPOLYLINE
  5
AB2D8
330
1F
100
AcDbEntity
  8
UKPM - scale and labels
100
AcDbPolyline
 90
     2
 43
0.0
 10
159.86
 20
4.48
 10
159.86
 20
2.08
  0
MTEXT
  5
AB2D9
330
1F
100
AcDbEntity
  8
UKPM - scale and labels
100
AcDbMText
 10
182.36
 20
-2.72
 30
0.0
 40
2.4
 71
     5
 72
     1
  1
Metres
  0
MTEXT
  5
AB2DA
330
1F
100
AcDbEntity
  8
UKPM - scale and labels
100
AcDbMText
 10
152.36
 20
9.28
 30
0.0
 40
2.4
 71
     5
 72
     1
  1
10
  0
MTEXT
  5
AB2DB
330
1F
100
AcDbEntity
  8
UKPM - scale and labels
100
AcDbMText
 10
162.36
 20
9.28
 30
0.0
 40
2.4
 71
     5
 72
     1
  1
0
  0
MTEXT
  5
AB2DC
330
1F
100
AcDbEntity
  8
UKPM - scale and labels
100
AcDbMText
 10
172.36
 20
9.28
 30
0.0
 40
2.4
 71
     5
 72
     1
  1
10
  0
MTEXT
  5
AB2DD
330
1F
100
AcDbEntity
  8
UKPM - scale and labels
100
AcDbMText
 10
182.36
 20
9.28
 30
0.0
 40
2.4
 71
     5
 72
     1
  1
20
  0
MTEXT
  5
AB2DE
330
1F
100
AcDbEntity
  8
UKPM - scale and labels
100
AcDbMText
 10
192.36
 20
9.28
 30
0.0
 40
2.4
 71
     5
 72
     1
  1
30
  0
MTEXT
  5
AB2DF
330
1F
100
AcDbEntity
  8
UKPM - scale and labels
100
AcDbMText
 10
202.36
 20
9.28
 30
0.0
 40
2.4
 71
     5
 72
     1
  1
40
  0
MTEXT
  5
AB2E0
330
1F
100
AcDbEntity
  8
UKPM - scale and labels
100
AcDbMText
 10
212.36
 20
9.28
 30
0.0
 40
2.4
 71
     5
 72
     1
  1
50
  0
MTEXT
  5
AB2E1
330
1F
100
AcDbEntity
  8
UKPM - scale and labels
100
AcDbMText
 10
57.36
 20
-14.52
 30
0.0
 40
2.6
 71
     7
 72
     1
  1
Produced on 17 July 2014 from the Ordnance Survey National Geographic Database and incorporating surveyed revision available at this date.
  0
MTEXT
  5
AB2E2
330
1F
100
AcDbEntity
  8
UKPM - scale and labels
100
AcDbMText
 10
57.36
 20
-19.72
 30
0.0
 40
2.6
 71
     7
 72
     1
  1
Reproduction in whole or part is prohibited without the prior permission of Ordnance Survey.
  0
MTEXT
  5
AB2E3
330
1F
100
AcDbEntity
  8
UKPM - scale and labels
100
AcDbMText
 10
57.36
 20
-24.92
 30
0.0
 40
2.6
 71
     7
 72
     1
  1
Crown copyright 2014. Supplied by copla ltd trading as UKPlanningMaps.com a licensed Ordnance Survey partner (100054135).
  0
MTEXT
  5
AB2E4
330
1F
100
AcDbEntity
  8
UKPM - scale and labels
100
AcDbMText
 10
57.36
 20
-30.12
 30
0.0
 40
2.6
 71
     7
 72
     1
  1
Unique plan reference: v4/1416/1740
  0
MTEXT
  5
AB2E5
330
1F
100
AcDbEntity
  8
UKPM - scale and labels
100
AcDbMText
 10
57.36
 20
275.88
 30
0.0
 40
10.4
 71
     7
 72
     1
  1
UKPlanningMaps.com
  0
LWPOLYLINE
  5
AB2E6
330
1F
100
AcDbEntity
  8
UKPM - scale and labels
100
AcDbPolyline
 90
     2
 43
0.0
 10
317.36
 20
44.08
 10
317.36
 20
24.08
  0
LWPOLYLINE
  5
AB2E7
330
1F
100
AcDbEntity
  8
UKPM - scale and labels
100
AcDbPolyline
 90
     2
 43
0.0
 10
317.36
 20
44.08
 10
312.36
 20
39.08
  0
LWPOLYLINE
  5
AB2E8
330
1F
100
AcDbEntity
  8
UKPM - scale and labels
100
AcDbPolyline
 90
     2
 43
0.0
 10
317.36
 20
44.08
 10
322.36
 20
39.08
  0
MTEXT
  5
AB2E9
330
1F
100
AcDbEntity
  8
UKPM - scale and labels
100
AcDbMText
 10
317.36
 20
19.08
 30
0.0
 40
4.0
 71
     5
 72
     1
  1
N
  0
LWPOLYLINE
  5
AB2EA
330
1F
100
AcDbEntity
  8
UKPM - grid
100
AcDbPolyline
 90
     5
 43
0.0
 10
57.36
 20
14.08
 10
57.36
 20
255.08
 10
297.36
 20
255.08
 10
297.36
 20
14.08
 10
57.36
 20
14.08
  0
MTEXT
  5
AB2EB
330
1F
100
AcDbEntity
  8
UKPM - grid
100
AcDbMText
 10
59.36
 20
16.08
 30
0.0
 40
1.0
 71
     7
 72
     1
  1
non-georeferenced map
  0
LWPOLYLINE
  5
AB2EC
330
1F
100
AcDbEntity
  8
UKPM - grid
100
AcDbPolyline
 90
     2
 43
0.0
 10
127.36
 20
34.98
 10
127.36
 20
234.98
  0
LWPOLYLINE
  5
AB2ED
330
1F
100
AcDbEntity
  8
UKPM - grid
100
AcDbPolyline
 90
     2
 43
0.0
 10
177.36
 20
34.98
 10
177.36
 20
234.98
  0
LWPOLYLINE
  5
AB2EE
330
1F
100
AcDbEntity
  8
UKPM - grid
100
AcDbPolyline
 90
     2
 43
0.0
 10
227.36
 20
34.98
 10
227.36
 20
234.98
  0
LWPOLYLINE
  5
AB2EF
330
1F
100
AcDbEntity
  8
UKPM - grid
100
AcDbPolyline
 90
     2
 43
0.0
 10
277.36
 20
34.98
 10
277.36
 20
234.98
  0
MTEXT
  5
AB2F0
330
1F
100
AcDbEntity
  8
UKPM - grid
100
AcDbMText
 10
77.36
 20
32.98
 30
0.0
 40
2.0
 71
     6
 72
     1
 50
90.0
  1
0m
  0
MTEXT
  5
AB2F1
330
1F
100
AcDbEntity
  8
UKPM - grid
100
AcDbMText
 10
77.36
 20
236.98
 30
0.0
 40
2.0
 71
     4
 72
     1
 50
90.0
  1
0m
  0
MTEXT
  5
AB2F2
330
1F
100
AcDbEntity
  8
UKPM - grid
100
AcDbMText
 10
127.36
 20
32.98
 30
0.0
 40
2.0
 71
     6
 72
     1
 50
90.0
  1
50m
  0
MTEXT
  5
AB2F3
330
1F
100
AcDbEntity
  8
UKPM - grid
100
AcDbMText
 10
127.36
 20
236.98
 30
0.0
 40
2.0
 71
     4
 72
     1
 50
90.0
  1
50m
  0
MTEXT
  5
AB2F4
330
1F
100
AcDbEntity
  8
UKPM - grid
100
AcDbMText
 10
177.36
 20
32.98
 30
0.0
 40
2.0
 71
     6
 72
     1
 50
90.0
  1
100m
  0
MTEXT
  5
AB2F5
330
1F
100
AcDbEntity
  8
UKPM - grid
100
AcDbMText
 10
177.36
 20
236.98
 30
0.0
 40
2.0
 71
     4
 72
     1
 50
90.0
  1
100m
  0
MTEXT
  5
AB2F6
330
1F
100
AcDbEntity
  8
UKPM - grid
100
AcDbMText
 10
227.36
 20
32.98
 30
0.0
 40
2.0
 71
     6
 72
     1
 50
90.0
  1
150m
  0
MTEXT
  5
AB2F7
330
1F
100
AcDbEntity
  8
UKPM - grid
100
AcDbMText
 10
227.36
 20
236.98
 30
0.0
 40
2.0
 71
     4
 72
     1
 50
90.0
  1
150m
  0
MTEXT
  5
AB2F8
330
1F
100
AcDbEntity
  8
UKPM - grid
100
AcDbMText
 10
277.36
 20
32.98
 30
0.0
 40
2.0
 71
     6
 72
     1
 50
90.0
  1
200m
  0
MTEXT
  5
AB2F9
330
1F
100
AcDbEntity
  8
UKPM - grid
100
AcDbMText
 10
277.36
 20
236.98
 30
0.0
 40
2.0
 71
     4
 72
     1
 50
90.0
  1
200m
  0
LWPOLYLINE
  5
AB2FA
330
1F
100
AcDbEntity
  8
UKPM - grid
100
AcDbPolyline
 90
     2
 43
0.0
 10
77.36
 20
84.98
 10
277.36
 20
84.98
  0
LWPOLYLINE
  5
AB2FB
330
1F
100
AcDbEntity
  8
UKPM - grid
100
AcDbPolyline
 90
     2
 43
0.0
 10
77.36
 20
134.98
 10
277.36
 20
134.98
  0
LWPOLYLINE
  5
AB2FC
330
1F
100
AcDbEntity
  8
UKPM - grid
100
AcDbPolyline
 90
     2
 43
0.0
 10
77.36
 20
184.98
 10
277.36
 20
184.98
  0
LWPOLYLINE
  5
AB2FD
330
1F
100
AcDbEntity
  8
UKPM - grid
100
AcDbPolyline
 90
     2
 43
0.0
 10
77.36
 20
234.98
 10
277.36
 20
234.98
  0
MTEXT
  5
AB2FE
330
1F
100
AcDbEntity
  8
UKPM - grid
100
AcDbMText
 10
75.36
 20
34.98
 30
0.0
 40
2.0
 71
     6
 72
     1
  1
0m
  0
MTEXT
  5
AB2FF
330
1F
100
AcDbEntity
  8
UKPM - grid
100
AcDbMText
 10
279.36
 20
34.98
 30
0.0
 40
2.0
 71
     4
 72
     1
  1
0m
  0
MTEXT
  5
AB300
330
1F
100
AcDbEntity
  8
UKPM - grid
100
AcDbMText
 10
75.36
 20
84.98
 30
0.0
 40
2.0
 71
     6
 72
     1
  1
50m
  0
MTEXT
  5
AB301
330
1F
100
AcDbEntity
  8
UKPM - grid
100
AcDbMText
 10
279.36
 20
84.98
 30
0.0
 40
2.0
 71
     4
 72
     1
  1
50m
  0
MTEXT
  5
AB302
330
1F
100
AcDbEntity
  8
UKPM - grid
100
AcDbMText
 10
75.36
 20
134.98
 30
0.0
 40
2.0
 71
     6
 72
     1
  1
100m
  0
MTEXT
  5
AB303
330
1F
100
AcDbEntity
  8
UKPM - grid
100
AcDbMText
 10
279.36
 20
134.98
 30
0.0
 40
2.0
 71
     4
 72
     1
  1
100m
  0
MTEXT
  5
AB304
330
1F
100
AcDbEntity
  8
UKPM - grid
100
AcDbMText
 10
75.36
 20
184.98
 30
0.0
 40
2.0
 71
     6
 72
     1
  1
150m
  0
MTEXT
  5
AB305
330
1F
100
AcDbEntity
  8
UKPM - grid
100
AcDbMText
 10
279.36
 20
184.98
 30
0.0
 40
2.0
 71
     4
 72
     1
  1
150m
  0
MTEXT
  5
AB306
330
1F
100
AcDbEntity
  8
UKPM - grid
100
AcDbMText
 10
75.36
 20
234.98
 30
0.0
 40
2.0
 71
     6
 72
     1
  1
200m
  0
MTEXT
  5
AB307
330
1F
100
AcDbEntity
  8
UKPM - grid
100
AcDbMText
 10
279.36
 20
234.98
 30
0.0
 40
2.0
 71
     4
 72
     1
  1
200m
  0
ENDSEC
  0
SECTION
  2
OBJECTS
  0
DICTIONARY
  5
C
330
0
100
AcDbDictionary
  3
ACAD_GROUP
350
D
  3
ACAD_LAYOUT
350
1A
  3
ACAD_MLINESTYLE
350
17
  3
ACAD_PLOTSETTINGS
350
19
  3
ACAD_TABLESTYLE
350
2A
  3
ACDBHEADERROUNDTRIPXREC
350
F2F03
  3
ACDBVARIABLEDICTIONARY
350
2C
  0
DICTIONARY
  5
F2F23
330
29
100
AcDbDictionary
280
     1
  3
ACAD_XREC_ROUNDTRIP
360
F2F24
  0
DICTIONARY
  5
D
102
{ACAD_REACTORS
330
C
102
}
330
C
100
AcDbDictionary
  0
DICTIONARY
  5
1A
102
{ACAD_REACTORS
330
C
102
}
330
C
100
AcDbDictionary
  0
DICTIONARY
  5
17
102
{ACAD_REACTORS
330
C
102
}
330
C
100
AcDbDictionary
  3
STANDARD
350
18
  0
DICTIONARY
  5
19
102
{ACAD_REACTORS
330
C
102
}
330
C
100
AcDbDictionary
  0
DICTIONARY
  5
2A
102
{ACAD_REACTORS
330
C
102
}
330
C
100
AcDbDictionary
  3
STANDARD
350
2B
  0
DICTIONARY
  5
F2F03
102
{ACAD_REACTORS
330
C
102
}
330
C
100
AcDbDictionary
  3
CEPSNTYPE
350
F2F0C
  3
DIMSTYLEDATA
350
F2F22
  3
FINGERPRINTGUID
350
F2F0D
  3
HYPERLINKBASE
350
F2F06
  3
INSUNITS
350
F2F0B
  3
LAYOUTDICT
350
F2F08
  3
LWETCUNION
350
F2F0A
  3
PLOTSETDICT
350
F2F09
  3
PSVPSCALE
350
F2F0F
  3
PUCSBASE
350
F2F12
  3
PUCSORGBACK
350
F2F18
  3
PUCSORGBOTTOM
350
F2F14
  3
PUCSORGFRONT
350
F2F17
  3
PUCSORGLEFT
350
F2F15
  3
PUCSORGRIGHT
350
F2F16
  3
PUCSORGTOP
350
F2F13
  3
PUCSORTHOREF
350
F2F10
  3
PUCSORTHOVIEW
350
F2F11
  3
STYLESHEET
350
F2F07
  3
TSTACKALIGN
350
F2F04
  3
TSTACKSIZE
350
F2F05
  3
UCSBASE
350
F2F1B
  3
UCSORGBACK
350
F2F21
  3
UCSORGBOTTOM
350
F2F1D
  3
UCSORGFRONT
350
F2F20
  3
UCSORGLEFT
350
F2F1E
  3
UCSORGRIGHT
350
F2F1F
  3
UCSORGTOP
350
F2F1C
  3
UCSORTHOREF
350
F2F19
  3
UCSORTHOVIEW
350
F2F1A
  3
VERSIONGUID
350
F2F0E
  0
DICTIONARY
  5
2C
102
{ACAD_REACTORS
330
C
102
}
330
C
100
AcDbDictionary
  3
CTABLESTYLE
350
2D
  0
XRECORD
  5
F2F24
102
{ACAD_REACTORS
330
F2F23
102
}
330
F2F23
100
AcDbXrecord
102
UCS
 74
     0
 71
     1
 10
0.0
 20
0.0
 30
0.0
 10
1.0
 20
0.0
 30
0.0
 10
0.0
 20
1.0
 30
0.0
146
0.0
 79
     0
102
VIEW
281
     0
  0
MLINESTYLE
  5
18
102
{ACAD_REACTORS
330
17
102
}
330
17
100
AcDbMlineStyle
  2
Standard
 70
     0
  3

 62
   256
 51
90.0
 52
90.0
 71
     2
 49
0.5
 62
   256
  6
BYLAYER
 49
-0.5
 62
   256
  6
BYLAYER
  0
TABLESTYLE
  5
2B
102
{ACAD_REACTORS
330
2A
102
}
330
2A
100
AcDbTableStyle
  3
Standard
 70
     0
 71
     0
 40
0.06
 41
0.06
280
     0
281
     0
  7
STANDARD
140
0.18
170
     2
 62
     0
 63
     7
283
     0
274
    -2
284
     1
 64
     0
275
    -2
285
     1
 65
     0
276
    -2
286
     1
 66
     0
277
    -2
287
     1
 67
     0
278
    -2
288
     1
 68
     0
279
    -2
289
     1
 69
     0
  7
STANDARD
140
0.25
170
     5
 62
     0
 63
     7
283
     0
274
    -2
284
     1
 64
     0
275
    -2
285
     1
 65
     0
276
    -2
286
     1
 66
     0
277
    -2
287
     1
 67
     0
278
    -2
288
     1
 68
     0
279
    -2
289
     1
 69
     0
  7
STANDARD
140
0.18
170
     5
 62
     0
 63
     7
283
     0
274
    -2
284
     1
 64
     0
275
    -2
285
     1
 65
     0
276
    -2
286
     1
 66
     0
277
    -2
287
     1
 67
     0
278
    -2
288
     1
 68
     0
279
    -2
289
     1
 69
     0
  0
XRECORD
  5
F2F0C
102
{ACAD_REACTORS
330
F2F03
102
}
330
F2F03
100
AcDbXrecord
 90
        0
  0
XRECORD
  5
F2F22
102
{ACAD_REACTORS
330
F2F03
102
}
330
F2F03
100
AcDbXrecord
1000
DSTYLE
1002
{
1070
   340
340
11
1002
}
  0
XRECORD
  5
F2F0D
102
{ACAD_REACTORS
330
F2F03
102
}
330
F2F03
100
AcDbXrecord
  1
{FAEB1C30-E019-11D5-929B-00C0DF256EC4}
  0
XRECORD
  5
F2F06
102
{ACAD_REACTORS
330
F2F03
102
}
330
F2F03
100
AcDbXrecord
  1

  0
XRECORD
  5
F2F0B
102
{ACAD_REACTORS
330
F2F03
102
}
330
F2F03
100
AcDbXrecord
 90
        1
  0
XRECORD
  5
F2F08
102
{ACAD_REACTORS
330
F2F03
102
}
330
F2F03
100
AcDbXrecord
340
1A
  0
XRECORD
  5
F2F0A
102
{ACAD_REACTORS
330
F2F03
102
}
330
F2F03
100
AcDbXrecord
 90
     2560
  0
XRECORD
  5
F2F09
102
{ACAD_REACTORS
330
F2F03
102
}
330
F2F03
100
AcDbXrecord
340
19
  0
XRECORD
  5
F2F0F
102
{ACAD_REACTORS
330
F2F03
102
}
330
F2F03
100
AcDbXrecord
 40
0.0
  0
XRECORD
  5
F2F12
102
{ACAD_REACTORS
330
F2F03
102
}
330
F2F03
100
AcDbXrecord
340
0
  0
XRECORD
  5
F2F18
102
{ACAD_REACTORS
330
F2F03
102
}
330
F2F03
100
AcDbXrecord
 10
0.0
 20
0.0
 30
0.0
  0
XRECORD
  5
F2F14
102
{ACAD_REACTORS
330
F2F03
102
}
330
F2F03
100
AcDbXrecord
 10
0.0
 20
0.0
 30
0.0
  0
XRECORD
  5
F2F17
102
{ACAD_REACTORS
330
F2F03
102
}
330
F2F03
100
AcDbXrecord
 10
0.0
 20
0.0
 30
0.0
  0
XRECORD
  5
F2F15
102
{ACAD_REACTORS
330
F2F03
102
}
330
F2F03
100
AcDbXrecord
 10
0.0
 20
0.0
 30
0.0
  0
XRECORD
  5
F2F16
102
{ACAD_REACTORS
330
F2F03
102
}
330
F2F03
100
AcDbXrecord
 10
0.0
 20
0.0
 30
0.0
  0
XRECORD
  5
F2F13
102
{ACAD_REACTORS
330
F2F03
102
}
330
F2F03
100
AcDbXrecord
 10
0.0
 20
0.0
 30
0.0
  0
XRECORD
  5
F2F10
102
{ACAD_REACTORS
330
F2F03
102
}
330
F2F03
100
AcDbXrecord
340
0
  0
XRECORD
  5
F2F11
102
{ACAD_REACTORS
330
F2F03
102
}
330
F2F03
100
AcDbXrecord
 70
     0
  0
XRECORD
  5
F2F07
102
{ACAD_REACTORS
330
F2F03
102
}
330
F2F03
100
AcDbXrecord
  1

  0
XRECORD
  5
F2F04
102
{ACAD_REACTORS
330
F2F03
102
}
330
F2F03
100
AcDbXrecord
 90
        1
  0
XRECORD
  5
F2F05
102
{ACAD_REACTORS
330
F2F03
102
}
330
F2F03
100
AcDbXrecord
 90
       70
  0
XRECORD
  5
F2F1B
102
{ACAD_REACTORS
330
F2F03
102
}
330
F2F03
100
AcDbXrecord
340
0
  0
XRECORD
  5
F2F21
102
{ACAD_REACTORS
330
F2F03
102
}
330
F2F03
100
AcDbXrecord
 10
0.0
 20
0.0
 30
0.0
  0
XRECORD
  5
F2F1D
102
{ACAD_REACTORS
330
F2F03
102
}
330
F2F03
100
AcDbXrecord
 10
0.0
 20
0.0
 30
0.0
  0
XRECORD
  5
F2F20
102
{ACAD_REACTORS
330
F2F03
102
}
330
F2F03
100
AcDbXrecord
 10
0.0
 20
0.0
 30
0.0
  0
XRECORD
  5
F2F1E
102
{ACAD_REACTORS
330
F2F03
102
}
330
F2F03
100
AcDbXrecord
 10
0.0
 20
0.0
 30
0.0
  0
XRECORD
  5
F2F1F
102
{ACAD_REACTORS
330
F2F03
102
}
330
F2F03
100
AcDbXrecord
 10
0.0
 20
0.0
 30
0.0
  0
XRECORD
  5
F2F1C
102
{ACAD_REACTORS
330
F2F03
102
}
330
F2F03
100
AcDbXrecord
 10
0.0
 20
0.0
 30
0.0
  0
XRECORD
  5
F2F19
102
{ACAD_REACTORS
330
F2F03
102
}
330
F2F03
100
AcDbXrecord
340
0
  0
XRECORD
  5
F2F1A
102
{ACAD_REACTORS
330
F2F03
102
}
330
F2F03
100
AcDbXrecord
 70
     0
  0
XRECORD
  5
F2F0E
102
{ACAD_REACTORS
330
F2F03
102
}
330
F2F03
100
AcDbXrecord
  1
{FAEB1C32-E019-11D5-929B-00C0DF256EC4}
  0
DICTIONARYVAR
  5
2D
102
{ACAD_REACTORS
330
2C
102
}
330
2C
100
DictionaryVariables
280
     0
  1
Standard
  0
ENDSEC
  0
EOF
