  0
SECTION
  2
HEADER
  9
$ACADVER
  1
AC1014
  9
$ACADMAINTVER
 70
     9
  9
$DWGCODEPAGE
  3
ANSI_1252
  9
$INSBASE
 10
-291535.64
 20
-92873.75
 30
0.0
  9
$EXTMIN
 10
0.0
 20
0.0
 30
0.0
  9
$EXTMAX
 10
295.68
 20
205.65
 30
0.0
  9
$TDCREATE
 40
2456856.0
  9
$TDUPDATE
 40
2456856.0
  9
$LIMMIN
 10
0.0
 20
0.0
  9
$LIMMAX
 10
12.0
 20
9.0
  9
$ORTHOMODE
 70
     0
  9
$REGENMODE
 70
     1
  9
$FILLMODE
 70
     1
  9
$QTEXTMODE
 70
     0
  9
$MIRRTEXT
 70
     1
  9
$DRAGMODE
 70
     2
  9
$LTSCALE
 40
1.0
  9
$OSMODE
 70
    37
  9
$ATTMODE
 70
     1
  9
$TEXTSIZE
 40
0.2
  9
$TRACEWID
 40
0.05
  9
$TEXTSTYLE
  7
STANDARD
  9
$CLAYER
  8
0
  9
$CELTYPE
  6
BYLAYER
  9
$CECOLOR
 62
   256
  9
$CELTSCALE
 40
1.0
  9
$DELOBJ
 70
     1
  9
$DISPSILH
 70
     0
  9
$DIMSCALE
 40
1.0
  9
$DIMASZ
 40
0.18
  9
$DIMEXO
 40
0.0625
  9
$DIMDLI
 40
0.38
  9
$DIMRND
 40
0.0
  9
$DIMDLE
 40
0.0
  9
$DIMEXE
 40
0.18
  9
$DIMTP
 40
0.0
  9
$DIMTM
 40
0.0
  9
$DIMTXT
 40
0.18
  9
$DIMCEN
 40
0.09
  9
$DIMTSZ
 40
0.0
  9
$DIMTOL
 70
     0
  9
$DIMLIM
 70
     0
  9
$DIMTIH
 70
     1
  9
$DIMTOH
 70
     1
  9
$DIMSE1
 70
     0
  9
$DIMSE2
 70
     0
  9
$DIMTAD
 70
     0
  9
$DIMZIN
 70
     0
  9
$DIMBLK
  1

  9
$DIMASO
 70
     1
  9
$DIMSHO
 70
     1
  9
$DIMPOST
  1

  9
$DIMAPOST
  1

  9
$DIMALT
 70
     0
  9
$DIMALTD
 70
     2
  9
$DIMALTF
 40
25.4
  9
$DIMLFAC
 40
1.0
  9
$DIMTOFL
 70
     0
  9
$DIMTVP
 40
0.0
  9
$DIMTIX
 70
     0
  9
$DIMSOXD
 70
     0
  9
$DIMSAH
 70
     0
  9
$DIMBLK1
  1

  9
$DIMBLK2
  1

  9
$DIMSTYLE
  2
STANDARD
  9
$DIMCLRD
 70
     0
  9
$DIMCLRE
 70
     0
  9
$DIMCLRT
 70
     0
  9
$DIMTFAC
 40
1.0
  9
$DIMGAP
 40
0.09
  9
$DIMJUST
 70
     0
  9
$DIMSD1
 70
     0
  9
$DIMSD2
 70
     0
  9
$DIMTOLJ
 70
     1
  9
$DIMTZIN
 70
     0
  9
$DIMALTZ
 70
     0
  9
$DIMALTTZ
 70
     0
  9
$DIMFIT
 70
     3
  9
$DIMUPT
 70
     0
  9
$DIMUNIT
 70
     2
  9
$DIMDEC
 70
     4
  9
$DIMTDEC
 70
     4
  9
$DIMALTU
 70
     2
  9
$DIMALTTD
 70
     2
  9
$DIMTXSTY
  7
STANDARD
  9
$DIMAUNIT
 70
     0
  9
$LUNITS
 70
     2
  9
$LUPREC
 70
     4
  9
$SKETCHINC
 40
0.1
  9
$FILLETRAD
 40
0.5
  9
$AUNITS
 70
     0
  9
$AUPREC
 70
     0
  9
$MENU
  1
.
  9
$ELEVATION
 40
0.0
  9
$PELEVATION
 40
0.0
  9
$THICKNESS
 40
0.0
  9
$LIMCHECK
 70
     0
  9
$CHAMFERA
 40
0.5
  9
$CHAMFERB
 40
0.5
  9
$CHAMFERC
 40
1.0
  9
$CHAMFERD
 40
0.0
  9
$SKPOLY
 70
     0
  9
$TDINDWG
 40
0.0000000116
  9
$TDUSRTIMER
 40
0.0000000116
  9
$USRTIMER
 70
     1
  9
$ANGBASE
 50
0.0
  9
$ANGDIR
 70
     0
  9
$PDMODE
 70
     0
  9
$PDSIZE
 40
0.0
  9
$PLINEWID
 40
0.0
  9
$COORDS
 70
     1
  9
$SPLFRAME
 70
     0
  9
$SPLINETYPE
 70
     6
  9
$SPLINESEGS
 70
     8
  9
$ATTDIA
 70
     0
  9
$ATTREQ
 70
     1
  9
$HANDLING
 70
     1
  9
$HANDSEED
  5
F4240
  9
$SURFTAB1
 70
     6
  9
$SURFTAB2
 70
     6
  9
$SURFTYPE
 70
     6
  9
$SURFU
 70
     6
  9
$SURFV
 70
     6
  9
$UCSNAME
  2

  9
$UCSORG
 10
0.0
 20
0.0
 30
0.0
  9
$UCSXDIR
 10
1.0
 20
0.0
 30
0.0
  9
$UCSYDIR
 10
0.0
 20
1.0
 30
0.0
  9
$PUCSNAME
  2

  9
$PUCSORG
 10
0.0
 20
0.0
 30
0.0
  9
$PUCSXDIR
 10
1.0
 20
0.0
 30
0.0
  9
$PUCSYDIR
 10
0.0
 20
1.0
 30
0.0
  9
$USERI1
 70
     0
  9
$USERI2
 70
     0
  9
$USERI3
 70
     0
  9
$USERI4
 70
     0
  9
$USERI5
 70
     0
  9
$USERR1
 40
0.0
  9
$USERR2
 40
0.0
  9
$USERR3
 40
0.0
  9
$USERR4
 40
0.0
  9
$USERR5
 40
0.0
  9
$WORLDVIEW
 70
     1
  9
$SHADEDGE
 70
     3
  9
$SHADEDIF
 70
    70
  9
$TILEMODE
 70
     1
  9
$MAXACTVP
 70
    64
  9
$PINSBASE
 10
0.0
 20
0.0
 30
0.0
  9
$PLIMCHECK
 70
     0
  9
$PEXTMIN
 10
1.000000000000000E+20
 20
1.000000000000000E+20
 30
1.000000000000000E+20
  9
$PEXTMAX
 10
-1.000000000000000E+20
 20
-1.000000000000000E+20
 30
-1.000000000000000E+20
  9
$PLIMMIN
 10
0.0
 20
0.0
  9
$PLIMMAX
 10
12.0
 20
9.0
  9
$UNITMODE
 70
     0
  9
$VISRETAIN
 70
     1
  9
$PLINEGEN
 70
     0
  9
$PSLTSCALE
 70
     1
  9
$TREEDEPTH
 70
  3020
  9
$PICKSTYLE
 70
     1
  9
$CMLSTYLE
  2
STANDARD
  9
$CMLJUST
 70
     0
  9
$CMLSCALE
 40
1.0
  9
$PROXYGRAPHICS
 70
     1
  9
$MEASUREMENT
 70
     0
  0
ENDSEC
  0
SECTION
  2
CLASSES
  0
CLASS
  1
ACDBDICTIONARYWDFLT
  2
AcDbDictionaryWithDefault
  3
ObjectDBX Classes
 90
        0
280
     0
281
     0
  0
CLASS
  1
TABLESTYLE
  2
AcDbTableStyle
  3
ObjectDBX Classes
 90
     2047
280
     0
281
     0
  0
CLASS
  1
DICTIONARYVAR
  2
AcDbDictionaryVar
  3
ObjectDBX Classes
 90
        0
280
     0
281
     0
  0
CLASS
  1
XRECORD
  2
AcDbXrecord
  3
AutoCAD 2000
 90
        0
280
     0
281
     0
  0
CLASS
  1
LWPOLYLINE
  2
AcDbPolyline
  3
AutoCAD 2000
 90
        0
280
     0
281
     1
  0
CLASS
  1
HATCH
  2
AcDbHatch
  3
AutoCAD 2000
 90
        0
280
     0
281
     1
  0
CLASS
  1
ACDBPLACEHOLDER
  2
AcDbPlaceHolder
  3
ObjectDBX Classes
 90
        0
280
     0
281
     0
  0
CLASS
  1
LAYOUT
  2
AcDbLayout
  3
ObjectDBX Classes
 90
        0
280
     0
281
     0
  0
CLASS
  1
TEXT
  2
AcDbText
  3
AutoCAD 2000
 90
        0
280
     0
281
     1
  0
ENDSEC
  0
SECTION
  2
TABLES
  0
TABLE
  2
VPORT
  5
8
330
0
100
AcDbSymbolTable
 70
     1
  0
VPORT
  5
29
100
AcDbSymbolTableRecord
100
AcDbViewportTableRecord
  2
*ACTIVE
 70
     0
 10
0.0
 20
0.0
 11
1.0
 21
1.0
 12
147.84
 22
102.825
 13
0.0
 23
0.0
 14
0.5
 24
0.5
 15
0.5
 25
0.5
 16
0.0
 26
0.0
 36
1.0
 17
0.0
 27
0.0
 37
0.0
 40
205.65
 41
1.4377826
 42
50.0
 43
0.0
 44
0.0
 50
0.0
 51
0.0
 71
     0
 72
   100
 73
     1
 74
     3
 75
     0
 76
     0
 77
     0
 78
     0
  0
ENDTAB
  0
TABLE
  2
LTYPE
  5
5
330
0
100
AcDbSymbolTable
 70
     1
  0
LTYPE
  5
14
330
5
100
AcDbSymbolTableRecord
100
AcDbLinetypeTableRecord
  2
BYBLOCK
 70
     0
  3

 72
    65
 73
     0
 40
0.0
  0
LTYPE
  5
15
330
5
100
AcDbSymbolTableRecord
100
AcDbLinetypeTableRecord
  2
BYLAYER
 70
     0
  3

 72
    65
 73
     0
 40
0.0
  0
LTYPE
  5
16
330
5
100
AcDbSymbolTableRecord
100
AcDbLinetypeTableRecord
  2
CONTINUOUS
 70
     0
  3
Solid line
 72
    65
 73
     0
 40
0.0
  0
ENDTAB
  0
TABLE
  2
LAYER
  5
2
330
0
100
AcDbSymbolTable
 70
    13
  0
LAYER
  5
10
330
2
100
AcDbSymbolTableRecord
100
AcDbLayerTableRecord
  2
0
 70
     0
 62
     7
  6
CONTINUOUS
  0
LAYER
  5
2E
330
2
100
AcDbSymbolTableRecord
100
AcDbLayerTableRecord
  2
UKPM - scale and labels
 70
     0
 62
   252
  6
CONTINUOUS
  0
LAYER
  5
2F
330
2
100
AcDbSymbolTableRecord
100
AcDbLayerTableRecord
  2
UKPM - grid
 70
     0
 62
   252
  6
CONTINUOUS
  0
LAYER
  5
30
330
2
100
AcDbSymbolTableRecord
100
AcDbLayerTableRecord
  2
Building_Outline_Line
 70
     0
 62
   251
  6
CONTINUOUS
  0
LAYER
  5
31
330
2
100
AcDbSymbolTableRecord
100
AcDbLayerTableRecord
  2
Building_Division_Line
 70
     0
 62
   251
  6
CONTINUOUS
  0
LAYER
  5
32
330
2
100
AcDbSymbolTableRecord
100
AcDbLayerTableRecord
  2
General_Feature_Line
 70
     0
 62
   250
  6
CONTINUOUS
  0
LAYER
  5
33
330
2
100
AcDbSymbolTableRecord
100
AcDbLayerTableRecord
  2
Roadside_Structure_Point
 70
     0
 62
   255
  6
CONTINUOUS
  0
LAYER
  5
34
330
2
100
AcDbSymbolTableRecord
100
AcDbLayerTableRecord
  2
Roadside_Text
 70
     0
 62
   251
  6
CONTINUOUS
  0
LAYER
  5
35
330
2
100
AcDbSymbolTableRecord
100
AcDbLayerTableRecord
  2
Road_Or_Track_Road_Name_Or_Classification_Text
 70
     0
 62
   251
  6
CONTINUOUS
  0
LAYER
  5
36
330
2
100
AcDbSymbolTableRecord
100
AcDbLayerTableRecord
  2
Network_Or_Polygon_Closing_Geometry_Link_Polygon_Closing_Link_Line
 70
     0
 62
    12
  6
CONTINUOUS
  0
LAYER
  5
37
330
2
100
AcDbSymbolTableRecord
100
AcDbLayerTableRecord
  2
Road_Or_Track_Public_Line
 70
     0
 62
   250
  6
CONTINUOUS
  0
LAYER
  5
38
330
2
100
AcDbSymbolTableRecord
100
AcDbLayerTableRecord
  2
Rail_Standard_Gauge_Track_Line
 70
     0
 62
   250
  6
CONTINUOUS
  0
LAYER
  5
39
330
2
100
AcDbSymbolTableRecord
100
AcDbLayerTableRecord
  2
Buildings_Or_Structure_Text
 70
     0
 62
   251
  6
CONTINUOUS
  0
ENDTAB
  0
TABLE
  2
STYLE
  5
3
330
0
100
AcDbSymbolTable
 70
     1
  0
STYLE
  5
11
330
3
100
AcDbSymbolTableRecord
100
AcDbTextStyleTableRecord
  2
STANDARD
 70
     0
 40
0.0
 41
1.0
 50
0.0
 71
     0
 42
0.2
  3
txt
  4

  0
ENDTAB
  0
TABLE
  2
VIEW
  5
6
330
0
100
AcDbSymbolTable
 70
     0
  0
ENDTAB
  0
TABLE
  2
UCS
  5
7
330
0
100
AcDbSymbolTable
 70
     0
  0
ENDTAB
  0
TABLE
  2
APPID
  5
9
330
0
100
AcDbSymbolTable
 70
     1
  0
APPID
  5
12
330
9
100
AcDbSymbolTableRecord
100
AcDbRegAppTableRecord
  2
ACAD
 70
     0
  0
ENDTAB
  0
TABLE
  2
DIMSTYLE
  5
A
330
0
100
AcDbSymbolTable
 70
     1
  0
DIMSTYLE
105
27
330
A
100
AcDbSymbolTableRecord
100
AcDbDimStyleTableRecord
  2
STANDARD
 70
     0
  3

  4

  5

  6

  7

 40
1.0
 41
0.18
 42
0.0625
 43
0.38
 44
0.18
 45
0.0
 46
0.0
 47
0.0
 48
0.0
140
0.18
141
0.09
142
0.0
143
25.4
144
1.0
145
0.0
146
1.0
147
0.09
 71
     0
 72
     0
 73
     1
 74
     1
 75
     0
 76
     0
 77
     0
 78
     0
170
     0
171
     2
172
     0
173
     0
174
     0
175
     0
176
     0
177
     0
178
     0
270
     2
271
     4
272
     4
273
     2
274
     2
340
11
275
     0
280
     0
281
     0
282
     0
283
     1
284
     0
285
     0
286
     0
287
     3
288
     0
  0
ENDTAB
  0
TABLE
  2
BLOCK_RECORD
  5
1
330
0
100
AcDbSymbolTable
 70
     2
  0
BLOCK_RECORD
  5
1F
330
1
100
AcDbSymbolTableRecord
100
AcDbBlockTableRecord
  2
*MODEL_SPACE
  0
BLOCK_RECORD
  5
1B
330
1
100
AcDbSymbolTableRecord
100
AcDbBlockTableRecord
  2
*PAPER_SPACE
  0
ENDTAB
  0
ENDSEC
  0
SECTION
  2
BLOCKS
  0
BLOCK
  5
20
330
1F
100
AcDbEntity
  8
0
100
AcDbBlockBegin
  2
*MODEL_SPACE
 70
     0
 71
     0
 10
-291535.64
 20
-92873.75
 30
0.0
  3
*MODEL_SPACE
  1

  0
ENDBLK
  5
21
330
1F
100
AcDbEntity
  8
0
100
AcDbBlockEnd
  0
BLOCK
  5
1C
330
1B
100
AcDbEntity
  8
0
 67
     1
100
AcDbBlockBegin
  2
*PAPER_SPACE
 70
     0
 71
     0
 10
-291535.64
 20
-92873.75
 30
0.0
  3
*PAPER_SPACE
  1

  0
ENDBLK
  5
1D
330
1B
100
AcDbEntity
 67
     1
  8
0
100
AcDbBlockEnd
  0
ENDSEC
  0
SECTION
  2
ENTITIES
  0
MTEXT
  5
AAE60
330
1F
100
AcDbEntity
  8
Buildings_Or_Structure_Text
100
AcDbMText
 10
169.68
 20
71.43
 30
0.0
 40
1.75
 71
     7
 72
     1
  1
Court
 50
0.0
  0
MTEXT
  5
AAE61
330
1F
100
AcDbEntity
  8
Buildings_Or_Structure_Text
100
AcDbMText
 10
179.19
 20
89.73
 30
0.0
 40
1.5
 71
     7
 72
     1
  1
to
 50
320.7
  0
MTEXT
  5
AAE62
330
1F
100
AcDbEntity
  8
Buildings_Or_Structure_Text
100
AcDbMText
 10
180.1
 20
91.57
 30
0.0
 40
1.5
 71
     7
 72
     1
  1
77
 50
321.0
  0
MTEXT
  5
AAE63
330
1F
100
AcDbEntity
  8
Buildings_Or_Structure_Text
100
AcDbMText
 10
185.98
 20
85.67
 30
0.0
 40
1.5
 71
     7
 72
     1
  1
82 to 101
 50
322.2
  0
MTEXT
  5
AAE64
330
1F
100
AcDbEntity
  8
Buildings_Or_Structure_Text
100
AcDbMText
 10
177.96
 20
87.89
 30
0.0
 40
1.5
 71
     7
 72
     1
  1
81
 50
320.9
  0
MTEXT
  5
AAE65
330
1F
100
AcDbEntity
  8
Buildings_Or_Structure_Text
100
AcDbMText
 10
167.63
 20
73.71
 30
0.0
 40
1.75
 71
     7
 72
     1
  1
Richmond
 50
0.0
  0
MTEXT
  5
AAE66
330
1F
100
AcDbEntity
  8
Buildings_Or_Structure_Text
100
AcDbMText
 10
167.75
 20
91.53
 30
0.0
 40
1.5
 71
     7
 72
     1
  1
55
 50
50.8
  0
MTEXT
  5
AAE67
330
1F
100
AcDbEntity
  8
Buildings_Or_Structure_Text
100
AcDbMText
 10
145.33
 20
72.7
 30
0.0
 40
1.5
 71
     7
 72
     1
  1
36 to 51
 50
50.1
  0
MTEXT
  5
AAE68
330
1F
100
AcDbEntity
  8
Buildings_Or_Structure_Text
100
AcDbMText
 10
206.91
 20
110.3
 30
0.0
 40
1.5
 71
     7
 72
     1
  1
28 to 30
 50
39.6
  0
MTEXT
  5
AAE69
330
1F
100
AcDbEntity
  8
Buildings_Or_Structure_Text
100
AcDbMText
 10
113.61
 20
152.3
 30
0.0
 40
1.5
 71
     8
 72
     1
  1
1
 50
114.5
  0
MTEXT
  5
AAE6A
330
1F
100
AcDbEntity
  8
Road_Or_Track_Road_Name_Or_Classification_Text
100
AcDbMText
 10
128.46
 20
155.85
 30
0.0
 40
1.75
 71
     5
 72
     1
  1
RICHMOND ROAD
 50
40.0
  0
MTEXT
  5
AAE6B
330
1F
100
AcDbEntity
  8
Buildings_Or_Structure_Text
100
AcDbMText
 10
123.16
 20
141.4
 30
0.0
 40
1.5
 71
     8
 72
     1
  1
9
 50
219.6
  0
MTEXT
  5
AAE6C
330
1F
100
AcDbEntity
  8
Buildings_Or_Structure_Text
100
AcDbMText
 10
141.76
 20
157.15
 30
0.0
 40
1.5
 71
     8
 72
     1
  1
5
 50
219.6
  0
MTEXT
  5
AAE6D
330
1F
100
AcDbEntity
  8
Buildings_Or_Structure_Text
100
AcDbMText
 10
185.83
 20
129.42
 30
0.0
 40
1.5
 71
     7
 72
     1
  1
60 to 76
 50
0.0
  0
MTEXT
  5
AAE6E
330
1F
100
AcDbEntity
  8
Roadside_Text
100
AcDbMText
 10
178.86
 20
147.51
 30
0.0
 40
1.5
 71
     7
 72
     1
  1
Posts
 50
0.0
  0
MTEXT
  5
AAE6F
330
1F
100
AcDbEntity
  8
Buildings_Or_Structure_Text
100
AcDbMText
 10
143.01
 20
118.0
 30
0.0
 40
1.5
 71
     8
 72
     1
  1
9a
 50
219.3
  0
LWPOLYLINE
  5
AAE70
330
1F
100
AcDbEntity
  8
Building_Outline_Line
100
AcDbPolyline
 90
     5
 43
0.0
 10
209.11
 20
68.17
 10
208.1
 20
71.04
 10
207.28
 20
73.39
 10
206.47
 20
75.71
 10
205.56
 20
78.3
  0
LWPOLYLINE
  5
AAE71
330
1F
100
AcDbEntity
  8
Building_Division_Line
100
AcDbPolyline
 90
     5
 43
0.0
 10
200.25
 20
76.53
 10
199.51
 20
76.28
 10
200.45
 20
73.61
 10
200.6
 20
73.17
 10
200.47
 20
73.11
  0
LWPOLYLINE
  5
AAE72
330
1F
100
AcDbEntity
  8
Building_Outline_Line
100
AcDbPolyline
 90
     2
 43
0.0
 10
204.57
 20
66.58
 10
208.99
 20
68.13
  0
LWPOLYLINE
  5
AAE73
330
1F
100
AcDbEntity
  8
Building_Outline_Line
100
AcDbPolyline
 90
     6
 43
0.0
 10
186.47
 20
66.6
 10
186.54
 20
66.69
 10
187.73
 20
68.15
 10
192.56
 20
64.22
 10
199.44
 20
72.67
 10
200.47
 20
73.11
  0
LWPOLYLINE
  5
AAE74
330
1F
100
AcDbEntity
  8
Building_Division_Line
100
AcDbPolyline
 90
     2
 43
0.0
 10
205.56
 20
78.3
 10
200.25
 20
76.53
  0
LWPOLYLINE
  5
AAE75
330
1F
100
AcDbEntity
  8
General_Feature_Line
100
AcDbPolyline
 90
     2
 43
0.0
 10
191.72
 20
62.08
 10
202.95
 20
66.01
  0
LWPOLYLINE
  5
AAE76
330
1F
100
AcDbEntity
  8
Building_Outline_Line
100
AcDbPolyline
 90
     2
 43
0.0
 10
208.99
 20
68.13
 10
209.11
 20
68.17
  0
LWPOLYLINE
  5
AAE77
330
1F
100
AcDbEntity
  8
Building_Outline_Line
100
AcDbPolyline
 90
     4
 43
0.0
 10
200.47
 20
73.11
 10
201.13
 20
71.21
 10
201.95
 20
68.88
 10
202.95
 20
66.01
  0
LWPOLYLINE
  5
AAE78
330
1F
100
AcDbEntity
  8
General_Feature_Line
100
AcDbPolyline
 90
    13
 43
0.0
 10
183.21
 20
60.39
 10
183.52
 20
60.31
 10
183.84
 20
60.26
 10
184.17
 20
60.23
 10
184.71
 20
60.2
 10
185.03
 20
60.19
 10
185.36
 20
60.19
 10
185.69
 20
60.2
 10
186.01
 20
60.23
 10
186.34
 20
60.27
 10
187.29
 20
60.52
 10
190.98
 20
61.82
 10
191.72
 20
62.08
  0
LWPOLYLINE
  5
AAE79
330
1F
100
AcDbEntity
  8
Building_Outline_Line
100
AcDbPolyline
 90
     2
 43
0.0
 10
160.72
 20
72.22
 10
160.89
 20
72.09
  0
LWPOLYLINE
  5
AAE7A
330
1F
100
AcDbEntity
  8
General_Feature_Line
100
AcDbPolyline
 90
     8
 43
0.0
 10
177.74
 20
59.48
 10
177.75
 20
59.36
 10
177.73
 20
59.1
 10
177.71
 20
58.98
 10
177.68
 20
58.87
 10
177.65
 20
58.77
 10
177.62
 20
58.67
 10
177.61
 20
58.65
  0
LWPOLYLINE
  5
AAE7B
330
1F
100
AcDbEntity
  8
Building_Outline_Line
100
AcDbPolyline
 90
     2
 43
0.0
 10
156.62
 20
67.15
 10
160.72
 20
72.22
  0
LWPOLYLINE
  5
AAE7C
330
1F
100
AcDbEntity
  8
Building_Outline_Line
100
AcDbPolyline
 90
     2
 43
0.0
 10
155.45
 20
68.09
 10
157.65
 20
70.81
  0
LWPOLYLINE
  5
AAE7D
330
1F
100
AcDbEntity
  8
Building_Outline_Line
100
AcDbPolyline
 90
     2
 43
0.0
 10
155.45
 20
68.09
 10
156.62
 20
67.15
  0
LWPOLYLINE
  5
AAE7E
330
1F
100
AcDbEntity
  8
Building_Outline_Line
100
AcDbPolyline
 90
     5
 43
0.0
 10
153.23
 20
62.56
 10
153.68
 20
61.28
 10
156.42
 20
62.25
 10
158.88
 20
65.32
 10
156.62
 20
67.15
  0
LWPOLYLINE
  5
AAE7F
330
1F
100
AcDbEntity
  8
Building_Outline_Line
100
AcDbPolyline
 90
     2
 43
0.0
 10
153.9
 20
66.17
 10
155.45
 20
68.09
  0
LWPOLYLINE
  5
AAE80
330
1F
100
AcDbEntity
  8
Building_Outline_Line
100
AcDbPolyline
 90
     4
 43
0.0
 10
159.51
 20
78.49
 10
159.6
 20
78.6
 10
159.7
 20
78.72
 10
159.52
 20
78.86
  0
LWPOLYLINE
  5
AAE81
330
1F
100
AcDbEntity
  8
Building_Outline_Line
100
AcDbPolyline
 90
     5
 43
0.0
 10
167.71
 20
66.54
 10
173.97
 20
61.46
 10
174.56
 20
60.49
 10
174.74
 20
59.32
 10
174.59
 20
58.65
  0
LWPOLYLINE
  5
AAE82
330
1F
100
AcDbEntity
  8
Building_Outline_Line
100
AcDbPolyline
 90
     2
 43
0.0
 10
159.56
 20
73.17
 10
157.65
 20
70.81
  0
LWPOLYLINE
  5
AAE83
330
1F
100
AcDbEntity
  8
General_Feature_Line
100
AcDbPolyline
 90
    35
 43
0.0
 10
183.21
 20
60.39
 10
182.9
 20
60.51
 10
182.74
 20
60.59
 10
182.61
 20
60.66
 10
182.48
 20
60.75
 10
182.36
 20
60.83
 10
182.23
 20
60.92
 10
182.11
 20
61.01
 10
181.99
 20
61.1
 10
181.6
 20
61.38
 10
181.34
 20
61.63
 10
181.3
 20
61.7
 10
181.25
 20
61.77
 10
181.22
 20
61.84
 10
181.18
 20
61.91
 10
181.15
 20
61.99
 10
181.12
 20
62.06
 10
181.1
 20
62.14
 10
181.07
 20
62.21
 10
181.04
 20
62.29
 10
181.01
 20
62.37
 10
180.97
 20
62.44
 10
180.48
 20
63.33
 10
180.16
 20
63.87
 10
179.41
 20
65.24
 10
179.21
 20
65.52
 10
179.01
 20
65.77
 10
178.81
 20
66.02
 10
178.59
 20
66.25
 10
178.36
 20
66.48
 10
178.08
 20
66.64
 10
176.61
 20
67.93
 10
183.45
 20
76.4
 10
185.03
 20
76.56
 10
185.72
 20
76.01
  0
LWPOLYLINE
  5
AAE84
330
1F
100
AcDbEntity
  8
Building_Outline_Line
100
AcDbPolyline
 90
     6
 43
0.0
 10
187.57
 20
79.76
 10
189.9
 20
77.87
 10
188.45
 20
76.1
 10
187.33
 20
74.72
 10
185.73
 20
76.02
 10
185.72
 20
76.01
  0
LWPOLYLINE
  5
AAE85
330
1F
100
AcDbEntity
  8
Building_Outline_Line
100
AcDbPolyline
 90
     2
 43
0.0
 10
160.89
 20
72.09
 10
167.71
 20
66.54
  0
LWPOLYLINE
  5
AAE86
330
1F
100
AcDbEntity
  8
General_Feature_Line
100
AcDbPolyline
 90
     3
 43
0.0
 10
160.89
 20
72.09
 10
162.25
 20
73.76
 10
169.07
 20
68.22
  0
LWPOLYLINE
  5
AAE87
330
1F
100
AcDbEntity
  8
General_Feature_Line
100
AcDbPolyline
 90
     2
 43
0.0
 10
167.71
 20
66.54
 10
169.07
 20
68.22
  0
LWPOLYLINE
  5
AAE88
330
1F
100
AcDbEntity
  8
General_Feature_Line
100
AcDbPolyline
 90
     5
 43
0.0
 10
129.92
 20
77.74
 10
129.55
 20
76.5
 10
131.26
 20
71.77
 10
132.37
 20
72.03
 10
134.19
 20
74.29
  0
LWPOLYLINE
  5
AAE89
330
1F
100
AcDbEntity
  8
Building_Outline_Line
100
AcDbPolyline
 90
     2
 43
0.0
 10
129.92
 20
77.74
 10
134.19
 20
74.29
  0
LWPOLYLINE
  5
AAE8A
330
1F
100
AcDbEntity
  8
Building_Outline_Line
100
AcDbPolyline
 90
     2
 43
0.0
 10
160.72
 20
72.22
 10
159.56
 20
73.17
  0
LWPOLYLINE
  5
AAE8B
330
1F
100
AcDbEntity
  8
General_Feature_Line
100
AcDbPolyline
 90
     2
 43
0.0
 10
159.51
 20
78.49
 10
160.6
 20
77.61
  0
LWPOLYLINE
  5
AAE8C
330
1F
100
AcDbEntity
  8
Building_Outline_Line
100
AcDbPolyline
 90
     4
 43
0.0
 10
157.65
 20
70.81
 10
157.31
 20
71.09
 10
155.02
 20
72.93
 10
159.51
 20
78.49
  0
LWPOLYLINE
  5
AAE8D
330
1F
100
AcDbEntity
  8
General_Feature_Line
100
AcDbPolyline
 90
     3
 43
0.0
 10
159.56
 20
73.17
 10
160.94
 20
74.88
 10
160.6
 20
77.61
  0
LWPOLYLINE
  5
AAE8E
330
1F
100
AcDbEntity
  8
General_Feature_Line
100
AcDbPolyline
 90
     3
 43
0.0
 10
143.72
 20
69.32
 10
143.71
 20
69.33
 10
137.06
 20
74.71
  0
LWPOLYLINE
  5
AAE8F
330
1F
100
AcDbEntity
  8
Building_Outline_Line
100
AcDbPolyline
 90
     3
 43
0.0
 10
138.51
 20
76.5
 10
138.65
 20
76.38
 10
145.16
 20
71.12
  0
LWPOLYLINE
  5
AAE90
330
1F
100
AcDbEntity
  8
Building_Outline_Line
100
AcDbPolyline
 90
     3
 43
0.0
 10
145.16
 20
71.12
 10
146.19
 20
72.41
 10
153.9
 20
66.17
  0
LWPOLYLINE
  5
AAE91
330
1F
100
AcDbEntity
  8
General_Feature_Line
100
AcDbPolyline
 90
     2
 43
0.0
 10
145.16
 20
71.12
 10
143.72
 20
69.32
  0
LWPOLYLINE
  5
AAE92
330
1F
100
AcDbEntity
  8
General_Feature_Line
100
AcDbPolyline
 90
     2
 43
0.0
 10
149.01
 20
65.04
 10
143.72
 20
69.32
  0
LWPOLYLINE
  5
AAE93
330
1F
100
AcDbEntity
  8
Building_Outline_Line
100
AcDbPolyline
 90
     6
 43
0.0
 10
134.19
 20
74.29
 10
134.32
 20
74.18
 10
134.66
 20
73.91
 10
137.32
 20
77.19
 10
137.45
 20
77.35
 10
138.51
 20
76.5
  0
LWPOLYLINE
  5
AAE94
330
1F
100
AcDbEntity
  8
General_Feature_Line
100
AcDbPolyline
 90
     2
 43
0.0
 10
137.06
 20
74.71
 10
138.51
 20
76.5
  0
LWPOLYLINE
  5
AAE95
330
1F
100
AcDbEntity
  8
Network_Or_Polygon_Closing_Geometry_Link_Polygon_Closing_Link_Line
100
AcDbPolyline
 90
     2
 43
0.0
 10
177.74
 20
59.48
 10
183.21
 20
60.39
  0
LWPOLYLINE
  5
AAE96
330
1F
100
AcDbEntity
  8
General_Feature_Line
100
AcDbPolyline
 90
    19
 43
0.0
 10
169.07
 20
68.22
 10
175.33
 20
63.13
 10
175.61
 20
62.9
 10
175.81
 20
62.72
 10
175.99
 20
62.54
 10
176.17
 20
62.35
 10
176.34
 20
62.15
 10
176.51
 20
61.95
 10
176.66
 20
61.74
 10
176.81
 20
61.52
 10
176.97
 20
61.26
 10
177.12
 20
61.04
 10
177.26
 20
60.81
 10
177.38
 20
60.58
 10
177.5
 20
60.34
 10
177.6
 20
60.1
 10
177.68
 20
59.86
 10
177.73
 20
59.61
 10
177.74
 20
59.48
  0
LWPOLYLINE
  5
AAE97
330
1F
100
AcDbEntity
  8
General_Feature_Line
100
AcDbPolyline
 90
     4
 43
0.0
 10
129.13
 20
61.58
 10
128.46
 20
63.5
 10
133.0
 20
65.09
 10
128.8
 20
77.07
  0
LWPOLYLINE
  5
AAE98
330
1F
100
AcDbEntity
  8
General_Feature_Line
100
AcDbPolyline
 90
     2
 43
0.0
 10
118.31
 20
95.5
 10
113.36
 20
101.19
  0
LWPOLYLINE
  5
AAE99
330
1F
100
AcDbEntity
  8
General_Feature_Line
100
AcDbPolyline
 90
     2
 43
0.0
 10
123.78
 20
97.75
 10
128.09
 20
101.5
  0
LWPOLYLINE
  5
AAE9A
330
1F
100
AcDbEntity
  8
Building_Division_Line
100
AcDbPolyline
 90
     2
 43
0.0
 10
212.34
 20
102.69
 10
213.36
 20
103.51
  0
LWPOLYLINE
  5
AAE9B
330
1F
100
AcDbEntity
  8
General_Feature_Line
100
AcDbPolyline
 90
     2
 43
0.0
 10
209.58
 20
133.98
 10
213.36
 20
129.51
  0
LWPOLYLINE
  5
AAE9C
330
1F
100
AcDbEntity
  8
Building_Outline_Line
100
AcDbPolyline
 90
     3
 43
0.0
 10
207.84
 20
107.64
 10
204.17
 20
112.21
 10
206.92
 20
114.41
  0
LWPOLYLINE
  5
AAE9D
330
1F
100
AcDbEntity
  8
Building_Outline_Line
100
AcDbPolyline
 90
     2
 43
0.0
 10
211.47
 20
103.12
 10
207.84
 20
107.64
  0
LWPOLYLINE
  5
AAE9E
330
1F
100
AcDbEntity
  8
General_Feature_Line
100
AcDbPolyline
 90
     2
 43
0.0
 10
200.62
 20
101.85
 10
203.85
 20
96.99
  0
LWPOLYLINE
  5
AAE9F
330
1F
100
AcDbEntity
  8
General_Feature_Line
100
AcDbPolyline
 90
     2
 43
0.0
 10
207.84
 20
107.64
 10
200.62
 20
101.85
  0
LWPOLYLINE
  5
AAEA0
330
1F
100
AcDbEntity
  8
General_Feature_Line
100
AcDbPolyline
 90
     2
 43
0.0
 10
204.7
 20
117.19
 10
207.99
 20
119.81
  0
LWPOLYLINE
  5
AAEA1
330
1F
100
AcDbEntity
  8
Building_Outline_Line
100
AcDbPolyline
 90
     3
 43
0.0
 10
212.34
 20
102.69
 10
212.02
 20
102.43
 10
211.47
 20
103.12
  0
LWPOLYLINE
  5
AAEA2
330
1F
100
AcDbEntity
  8
General_Feature_Line
100
AcDbPolyline
 90
     2
 43
0.0
 10
195.37
 20
109.75
 10
200.62
 20
101.85
  0
LWPOLYLINE
  5
AAEA3
330
1F
100
AcDbEntity
  8
General_Feature_Line
100
AcDbPolyline
 90
     2
 43
0.0
 10
203.85
 20
96.99
 10
211.47
 20
103.12
  0
LWPOLYLINE
  5
AAEA4
330
1F
100
AcDbEntity
  8
General_Feature_Line
100
AcDbPolyline
 90
     2
 43
0.0
 10
206.92
 20
114.41
 10
204.7
 20
117.19
  0
LWPOLYLINE
  5
AAEA5
330
1F
100
AcDbEntity
  8
General_Feature_Line
100
AcDbPolyline
 90
     2
 43
0.0
 10
212.27
 20
123.23
 10
207.99
 20
119.81
  0
LWPOLYLINE
  5
AAEA6
330
1F
100
AcDbEntity
  8
Building_Outline_Line
100
AcDbPolyline
 90
     4
 43
0.0
 10
210.38
 20
116.81
 10
211.92
 20
118.04
 10
211.73
 20
118.28
 10
213.36
 20
119.58
  0
LWPOLYLINE
  5
AAEA7
330
1F
100
AcDbEntity
  8
General_Feature_Line
100
AcDbPolyline
 90
     2
 43
0.0
 10
207.99
 20
119.81
 10
210.38
 20
116.81
  0
LWPOLYLINE
  5
AAEA8
330
1F
100
AcDbEntity
  8
Building_Outline_Line
100
AcDbPolyline
 90
     3
 43
0.0
 10
206.92
 20
114.41
 10
207.1
 20
114.18
 10
210.38
 20
116.81
  0
LWPOLYLINE
  5
AAEA9
330
1F
100
AcDbEntity
  8
Building_Division_Line
100
AcDbPolyline
 90
     3
 43
0.0
 10
180.18
 20
140.77
 10
184.92
 20
136.95
 10
182.35
 20
133.77
  0
LWPOLYLINE
  5
AAEAA
330
1F
100
AcDbEntity
  8
Building_Outline_Line
100
AcDbPolyline
 90
     3
 43
0.0
 10
182.35
 20
133.77
 10
184.1
 20
132.35
 10
183.74
 20
131.91
  0
LWPOLYLINE
  5
AAEAB
330
1F
100
AcDbEntity
  8
Building_Outline_Line
100
AcDbPolyline
 90
     3
 43
0.0
 10
180.18
 20
140.77
 10
177.61
 20
137.59
 10
182.35
 20
133.77
  0
LWPOLYLINE
  5
AAEAC
330
1F
100
AcDbEntity
  8
Building_Outline_Line
100
AcDbPolyline
 90
     6
 43
0.0
 10
183.11
 20
111.97
 10
188.15
 20
118.21
 10
189.29
 20
117.28
 10
196.48
 20
126.18
 10
196.53
 20
126.25
 10
200.26
 20
130.86
  0
LWPOLYLINE
  5
AAEAD
330
1F
100
AcDbEntity
  8
Building_Outline_Line
100
AcDbPolyline
 90
     4
 43
0.0
 10
176.55
 20
123.01
 10
178.6
 20
125.54
 10
179.17
 20
126.25
 10
180.72
 20
128.17
  0
LWPOLYLINE
  5
AAEAE
330
1F
100
AcDbEntity
  8
Building_Outline_Line
100
AcDbPolyline
 90
     4
 43
0.0
 10
177.29
 20
116.71
 10
178.85
 20
118.64
 10
178.77
 20
118.7
 10
175.32
 20
121.49
  0
LWPOLYLINE
  5
AAEAF
330
1F
100
AcDbEntity
  8
Building_Division_Line
100
AcDbPolyline
 90
     2
 43
0.0
 10
177.29
 20
116.71
 10
183.11
 20
111.97
  0
LWPOLYLINE
  5
AAEB0
330
1F
100
AcDbEntity
  8
General_Feature_Line
100
AcDbPolyline
 90
     6
 43
0.0
 10
187.97
 20
147.58
 10
186.87
 20
147.62
 10
185.8
 20
147.36
 10
184.6
 20
146.63
 10
184.15
 20
146.15
 10
183.96
 20
145.91
  0
LWPOLYLINE
  5
AAEB1
330
1F
100
AcDbEntity
  8
Network_Or_Polygon_Closing_Geometry_Link_Polygon_Closing_Link_Line
100
AcDbPolyline
 90
     2
 43
0.0
 10
184.19
 20
145.73
 10
183.96
 20
145.91
  0
LWPOLYLINE
  5
AAEB2
330
1F
100
AcDbEntity
  8
Road_Or_Track_Public_Line
100
AcDbPolyline
 90
     4
 43
0.0
 10
183.96
 20
145.91
 10
177.21
 20
137.43
 10
176.69
 20
136.18
 10
176.57
 20
135.53
  0
LWPOLYLINE
  5
AAEB3
330
1F
100
AcDbEntity
  8
Building_Outline_Line
100
AcDbPolyline
 90
     3
 43
0.0
 10
192.79
 20
138.78
 10
192.59
 20
138.94
 10
184.19
 20
145.73
  0
LWPOLYLINE
  5
AAEB4
330
1F
100
AcDbEntity
  8
Building_Outline_Line
100
AcDbPolyline
 90
     2
 43
0.0
 10
184.19
 20
145.73
 10
180.18
 20
140.77
  0
LWPOLYLINE
  5
AAEB5
330
1F
100
AcDbEntity
  8
Network_Or_Polygon_Closing_Geometry_Link_Polygon_Closing_Link_Line
100
AcDbPolyline
 90
     2
 43
0.0
 10
138.68
 20
89.7
 10
139.31
 20
89.69
  0
LWPOLYLINE
  5
AAEB6
330
1F
100
AcDbEntity
  8
General_Feature_Line
100
AcDbPolyline
 90
     2
 43
0.0
 10
183.6
 20
111.14
 10
185.94
 20
109.26
  0
LWPOLYLINE
  5
AAEB7
330
1F
100
AcDbEntity
  8
Road_Or_Track_Public_Line
100
AcDbPolyline
 90
     9
 43
0.0
 10
151.13
 20
112.66
 10
151.26
 20
112.84
 10
161.96
 20
126.25
 10
163.0
 20
127.55
 10
167.99
 20
134.93
 10
170.08
 20
137.41
 10
170.61
 20
138.04
 10
177.05
 20
145.68
 10
178.41
 20
147.31
  0
LWPOLYLINE
  5
AAEB8
330
1F
100
AcDbEntity
  8
General_Feature_Line
100
AcDbPolyline
 90
     2
 43
0.0
 10
178.06
 20
147.4
 10
182.81
 20
152.8
  0
LWPOLYLINE
  5
AAEB9
330
1F
100
AcDbEntity
  8
Road_Or_Track_Public_Line
100
AcDbPolyline
 90
    15
 43
0.0
 10
182.81
 20
152.8
 10
182.66
 20
152.45
 10
182.57
 20
152.26
 10
182.47
 20
152.07
 10
182.36
 20
151.89
 10
182.12
 20
151.58
 10
181.99
 20
151.42
 10
181.84
 20
151.27
 10
181.7
 20
151.12
 10
181.55
 20
150.97
 10
181.4
 20
150.81
 10
181.26
 20
150.66
 10
179.95
 20
149.08
 10
178.53
 20
147.45
 10
178.41
 20
147.31
  0
LWPOLYLINE
  5
AAEBA
330
1F
100
AcDbEntity
  8
General_Feature_Line
100
AcDbPolyline
 90
     3
 43
0.0
 10
186.11
 20
105.13
 10
185.88
 20
105.32
 10
179.87
 20
97.94
  0
LWPOLYLINE
  5
AAEBB
330
1F
100
AcDbEntity
  8
General_Feature_Line
100
AcDbPolyline
 90
     2
 43
0.0
 10
194.64
 20
141.07
 10
192.79
 20
138.78
  0
LWPOLYLINE
  5
AAEBC
330
1F
100
AcDbEntity
  8
General_Feature_Line
100
AcDbPolyline
 90
     2
 43
0.0
 10
201.7
 20
132.65
 10
194.64
 20
141.07
  0
LWPOLYLINE
  5
AAEBD
330
1F
100
AcDbEntity
  8
Building_Outline_Line
100
AcDbPolyline
 90
     4
 43
0.0
 10
200.26
 20
130.86
 10
196.84
 20
133.62
 10
197.76
 20
134.76
 10
192.79
 20
138.78
  0
LWPOLYLINE
  5
AAEBE
330
1F
100
AcDbEntity
  8
Network_Or_Polygon_Closing_Geometry_Link_Polygon_Closing_Link_Line
100
AcDbPolyline
 90
     2
 43
0.0
 10
187.97
 20
147.58
 10
182.81
 20
152.8
  0
LWPOLYLINE
  5
AAEBF
330
1F
100
AcDbEntity
  8
General_Feature_Line
100
AcDbPolyline
 90
     4
 43
0.0
 10
194.64
 20
141.07
 10
190.28
 20
146.27
 10
189.19
 20
147.15
 10
187.97
 20
147.58
  0
LWPOLYLINE
  5
AAEC0
330
1F
100
AcDbEntity
  8
Network_Or_Polygon_Closing_Geometry_Link_Polygon_Closing_Link_Line
100
AcDbPolyline
 90
     2
 43
0.0
 10
120.16
 20
85.0
 10
122.69
 20
82.02
  0
LWPOLYLINE
  5
AAEC1
330
1F
100
AcDbEntity
  8
Building_Outline_Line
100
AcDbPolyline
 90
     2
 43
0.0
 10
117.5
 20
88.13
 10
113.36
 20
83.86
  0
LWPOLYLINE
  5
AAEC2
330
1F
100
AcDbEntity
  8
General_Feature_Line
100
AcDbPolyline
 90
     4
 43
0.0
 10
127.31
 20
93.75
 10
127.81
 20
93.15
 10
125.49
 20
90.75
 10
123.86
 20
89.05
  0
LWPOLYLINE
  5
AAEC3
330
1F
100
AcDbEntity
  8
General_Feature_Line
100
AcDbPolyline
 90
     3
 43
0.0
 10
128.09
 20
101.5
 10
131.61
 20
97.55
 10
127.31
 20
93.75
  0
LWPOLYLINE
  5
AAEC4
330
1F
100
AcDbEntity
  8
General_Feature_Line
100
AcDbPolyline
 90
     2
 43
0.0
 10
208.66
 20
89.75
 10
213.36
 20
92.27
  0
LWPOLYLINE
  5
AAEC5
330
1F
100
AcDbEntity
  8
General_Feature_Line
100
AcDbPolyline
 90
     3
 43
0.0
 10
203.85
 20
96.99
 10
204.68
 20
95.74
 10
207.06
 20
92.15
  0
LWPOLYLINE
  5
AAEC6
330
1F
100
AcDbEntity
  8
General_Feature_Line
100
AcDbPolyline
 90
     2
 43
0.0
 10
207.06
 20
92.15
 10
213.36
 20
97.21
  0
LWPOLYLINE
  5
AAEC7
330
1F
100
AcDbEntity
  8
Building_Division_Line
100
AcDbPolyline
 90
     4
 43
0.0
 10
190.19
 20
85.85
 10
188.0
 20
87.63
 10
186.06
 20
89.21
 10
185.72
 20
89.49
  0
LWPOLYLINE
  5
AAEC8
330
1F
100
AcDbEntity
  8
Building_Outline_Line
100
AcDbPolyline
 90
     2
 43
0.0
 10
203.36
 20
84.44
 10
202.42
 20
84.11
  0
LWPOLYLINE
  5
AAEC9
330
1F
100
AcDbEntity
  8
Building_Outline_Line
100
AcDbPolyline
 90
     6
 43
0.0
 10
194.22
 20
90.79
 10
192.02
 20
92.58
 10
190.09
 20
94.15
 10
188.15
 20
95.73
 10
185.93
 20
97.54
 10
185.78
 20
97.66
  0
LWPOLYLINE
  5
AAECA
330
1F
100
AcDbEntity
  8
Building_Division_Line
100
AcDbPolyline
 90
     5
 43
0.0
 10
185.72
 20
89.49
 10
184.13
 20
90.79
 10
181.87
 20
92.62
 10
181.74
 20
92.73
 10
184.96
 20
96.66
  0
LWPOLYLINE
  5
AAECB
330
1F
100
AcDbEntity
  8
Building_Outline_Line
100
AcDbPolyline
 90
     2
 43
0.0
 10
185.78
 20
97.66
 10
184.96
 20
96.66
  0
LWPOLYLINE
  5
AAECC
330
1F
100
AcDbEntity
  8
Building_Division_Line
100
AcDbPolyline
 90
     8
 43
0.0
 10
190.19
 20
85.85
 10
192.39
 20
84.06
 10
194.3
 20
82.5
 10
195.0
 20
81.93
 10
196.25
 20
80.91
 10
198.51
 20
79.07
 10
202.54
 20
84.02
 10
202.42
 20
84.11
  0
LWPOLYLINE
  5
AAECD
330
1F
100
AcDbEntity
  8
Building_Division_Line
100
AcDbPolyline
 90
     2
 43
0.0
 10
190.19
 20
85.85
 10
194.22
 20
90.79
  0
LWPOLYLINE
  5
AAECE
330
1F
100
AcDbEntity
  8
Building_Division_Line
100
AcDbPolyline
 90
     3
 43
0.0
 10
185.72
 20
89.49
 10
181.69
 20
84.55
 10
181.81
 20
84.46
  0
LWPOLYLINE
  5
AAECF
330
1F
100
AcDbEntity
  8
Building_Outline_Line
100
AcDbPolyline
 90
     5
 43
0.0
 10
202.42
 20
84.11
 10
200.28
 20
85.86
 10
198.34
 20
87.44
 10
196.41
 20
89.0
 10
194.22
 20
90.79
  0
LWPOLYLINE
  5
AAED0
330
1F
100
AcDbEntity
  8
Building_Outline_Line
100
AcDbPolyline
 90
     2
 43
0.0
 10
180.88
 20
83.32
 10
181.81
 20
84.46
  0
LWPOLYLINE
  5
AAED1
330
1F
100
AcDbEntity
  8
Building_Outline_Line
100
AcDbPolyline
 90
     4
 43
0.0
 10
211.23
 20
80.28
 10
213.11
 20
80.94
 10
210.95
 20
87.1
 10
203.36
 20
84.44
  0
LWPOLYLINE
  5
AAED2
330
1F
100
AcDbEntity
  8
Building_Division_Line
100
AcDbPolyline
 90
     4
 43
0.0
 10
200.25
 20
76.53
 10
199.68
 20
78.23
 10
203.73
 20
83.4
 10
203.36
 20
84.44
  0
LWPOLYLINE
  5
AAED3
330
1F
100
AcDbEntity
  8
General_Feature_Line
100
AcDbPolyline
 90
     3
 43
0.0
 10
201.77
 20
92.38
 10
195.89
 20
97.17
 10
199.01
 20
101.01
  0
LWPOLYLINE
  5
AAED4
330
1F
100
AcDbEntity
  8
General_Feature_Line
100
AcDbPolyline
 90
     2
 43
0.0
 10
201.77
 20
92.38
 10
203.46
 20
94.33
  0
LWPOLYLINE
  5
AAED5
330
1F
100
AcDbEntity
  8
General_Feature_Line
100
AcDbPolyline
 90
     4
 43
0.0
 10
208.66
 20
89.75
 10
208.8
 20
89.5
 10
207.16
 20
88.75
 10
203.46
 20
94.33
  0
LWPOLYLINE
  5
AAED6
330
1F
100
AcDbEntity
  8
General_Feature_Line
100
AcDbPolyline
 90
     2
 43
0.0
 10
199.01
 20
101.01
 10
198.9
 20
101.18
  0
LWPOLYLINE
  5
AAED7
330
1F
100
AcDbEntity
  8
General_Feature_Line
100
AcDbPolyline
 90
     2
 43
0.0
 10
201.95
 20
96.6
 10
199.01
 20
101.01
  0
LWPOLYLINE
  5
AAED8
330
1F
100
AcDbEntity
  8
General_Feature_Line
100
AcDbPolyline
 90
     2
 43
0.0
 10
201.89
 20
96.52
 10
201.95
 20
96.6
  0
LWPOLYLINE
  5
AAED9
330
1F
100
AcDbEntity
  8
General_Feature_Line
100
AcDbPolyline
 90
     3
 43
0.0
 10
204.7
 20
117.19
 10
200.79
 20
114.07
 10
195.37
 20
109.75
  0
LWPOLYLINE
  5
AAEDA
330
1F
100
AcDbEntity
  8
General_Feature_Line
100
AcDbPolyline
 90
     2
 43
0.0
 10
207.06
 20
92.15
 10
208.66
 20
89.75
  0
LWPOLYLINE
  5
AAEDB
330
1F
100
AcDbEntity
  8
General_Feature_Line
100
AcDbPolyline
 90
     2
 43
0.0
 10
203.46
 20
94.33
 10
201.95
 20
96.6
  0
LWPOLYLINE
  5
AAEDC
330
1F
100
AcDbEntity
  8
Building_Division_Line
100
AcDbPolyline
 90
     2
 43
0.0
 10
180.7
 20
107.55
 10
173.78
 20
113.14
  0
LWPOLYLINE
  5
AAEDD
330
1F
100
AcDbEntity
  8
Building_Division_Line
100
AcDbPolyline
 90
     2
 43
0.0
 10
177.69
 20
103.83
 10
170.78
 20
109.42
  0
LWPOLYLINE
  5
AAEDE
330
1F
100
AcDbEntity
  8
General_Feature_Line
100
AcDbPolyline
 90
     2
 43
0.0
 10
185.94
 20
109.26
 10
192.86
 20
117.67
  0
LWPOLYLINE
  5
AAEDF
330
1F
100
AcDbEntity
  8
Building_Outline_Line
100
AcDbPolyline
 90
     4
 43
0.0
 10
184.96
 20
96.66
 10
183.07
 20
98.2
 10
181.66
 20
96.48
 10
179.87
 20
97.94
  0
LWPOLYLINE
  5
AAEE0
330
1F
100
AcDbEntity
  8
General_Feature_Line
100
AcDbPolyline
 90
     3
 43
0.0
 10
213.01
 20
90.34
 10
206.91
 20
88.2
 10
201.77
 20
92.38
  0
LWPOLYLINE
  5
AAEE1
330
1F
100
AcDbEntity
  8
General_Feature_Line
100
AcDbPolyline
 90
     3
 43
0.0
 10
198.9
 20
101.18
 10
193.87
 20
108.75
 10
195.37
 20
109.75
  0
LWPOLYLINE
  5
AAEE2
330
1F
100
AcDbEntity
  8
Building_Outline_Line
100
AcDbPolyline
 90
     2
 43
0.0
 10
158.53
 20
91.77
 10
155.52
 20
88.05
  0
LWPOLYLINE
  5
AAEE3
330
1F
100
AcDbEntity
  8
Building_Outline_Line
100
AcDbPolyline
 90
     2
 43
0.0
 10
175.32
 20
121.49
 10
176.55
 20
123.01
  0
LWPOLYLINE
  5
AAEE4
330
1F
100
AcDbEntity
  8
Network_Or_Polygon_Closing_Geometry_Link_Polygon_Closing_Link_Line
100
AcDbPolyline
 90
     2
 43
0.0
 10
151.13
 20
112.66
 10
150.84
 20
113.22
  0
LWPOLYLINE
  5
AAEE5
330
1F
100
AcDbEntity
  8
Building_Outline_Line
100
AcDbPolyline
 90
     3
 43
0.0
 10
159.52
 20
78.86
 10
160.82
 20
80.46
 10
162.44
 20
82.46
  0
LWPOLYLINE
  5
AAEE6
330
1F
100
AcDbEntity
  8
Building_Division_Line
100
AcDbPolyline
 90
     2
 43
0.0
 10
159.52
 20
78.86
 10
152.61
 20
84.45
  0
LWPOLYLINE
  5
AAEE7
330
1F
100
AcDbEntity
  8
Building_Outline_Line
100
AcDbPolyline
 90
     2
 43
0.0
 10
155.52
 20
88.05
 10
152.61
 20
84.45
  0
LWPOLYLINE
  5
AAEE8
330
1F
100
AcDbEntity
  8
Building_Division_Line
100
AcDbPolyline
 90
     2
 43
0.0
 10
174.69
 20
100.11
 10
167.77
 20
105.7
  0
LWPOLYLINE
  5
AAEE9
330
1F
100
AcDbEntity
  8
Building_Division_Line
100
AcDbPolyline
 90
     2
 43
0.0
 10
168.45
 20
89.9
 10
161.53
 20
95.49
  0
LWPOLYLINE
  5
AAEEA
330
1F
100
AcDbEntity
  8
Building_Division_Line
100
AcDbPolyline
 90
     2
 43
0.0
 10
165.44
 20
86.18
 10
158.53
 20
91.77
  0
LWPOLYLINE
  5
AAEEB
330
1F
100
AcDbEntity
  8
Building_Division_Line
100
AcDbPolyline
 90
     2
 43
0.0
 10
162.44
 20
82.46
 10
155.52
 20
88.05
  0
LWPOLYLINE
  5
AAEEC
330
1F
100
AcDbEntity
  8
General_Feature_Line
100
AcDbPolyline
 90
     4
 43
0.0
 10
198.9
 20
101.18
 10
193.46
 20
105.61
 10
190.3
 20
101.73
 10
186.11
 20
105.13
  0
LWPOLYLINE
  5
AAEED
330
1F
100
AcDbEntity
  8
Building_Outline_Line
100
AcDbPolyline
 90
     2
 43
0.0
 10
170.78
 20
109.42
 10
167.77
 20
105.7
  0
LWPOLYLINE
  5
AAEEE
330
1F
100
AcDbEntity
  8
Building_Outline_Line
100
AcDbPolyline
 90
     2
 43
0.0
 10
183.73
 20
111.3
 10
183.11
 20
111.97
  0
LWPOLYLINE
  5
AAEEF
330
1F
100
AcDbEntity
  8
Building_Outline_Line
100
AcDbPolyline
 90
     2
 43
0.0
 10
170.78
 20
109.42
 10
173.78
 20
113.14
  0
LWPOLYLINE
  5
AAEF0
330
1F
100
AcDbEntity
  8
Building_Outline_Line
100
AcDbPolyline
 90
     2
 43
0.0
 10
177.69
 20
103.83
 10
180.7
 20
107.55
  0
LWPOLYLINE
  5
AAEF1
330
1F
100
AcDbEntity
  8
Building_Outline_Line
100
AcDbPolyline
 90
     2
 43
0.0
 10
174.69
 20
100.11
 10
177.69
 20
103.83
  0
LWPOLYLINE
  5
AAEF2
330
1F
100
AcDbEntity
  8
Road_Or_Track_Public_Line
100
AcDbPolyline
 90
     4
 43
0.0
 10
177.44
 20
131.27
 10
177.56
 20
131.04
 10
178.44
 20
130.05
 10
178.98
 20
129.6
  0
LWPOLYLINE
  5
AAEF3
330
1F
100
AcDbEntity
  8
Road_Or_Track_Public_Line
100
AcDbPolyline
 90
   107
 43
0.0
 10
192.86
 20
117.67
 10
192.97
 20
117.81
 10
193.03
 20
117.9
 10
193.09
 20
118.0
 10
193.14
 20
118.1
 10
193.2
 20
118.2
 10
193.24
 20
118.3
 10
193.29
 20
118.41
 10
193.33
 20
118.51
 10
193.36
 20
118.62
 10
193.39
 20
118.73
 10
193.41
 20
118.84
 10
193.44
 20
118.95
 10
193.45
 20
119.06
 10
193.46
 20
119.18
 10
193.47
 20
119.33
 10
193.47
 20
119.44
 10
193.46
 20
119.56
 10
193.45
 20
119.67
 10
193.44
 20
119.78
 10
193.42
 20
119.9
 10
193.4
 20
120.01
 10
193.37
 20
120.12
 10
193.34
 20
120.22
 10
193.3
 20
120.33
 10
193.26
 20
120.44
 10
193.21
 20
120.54
 10
197.82
 20
126.25
 10
199.91
 20
128.83
 10
199.97
 20
128.78
 10
200.03
 20
128.73
 10
200.1
 20
128.68
 10
200.16
 20
128.64
 10
200.23
 20
128.6
 10
200.3
 20
128.57
 10
200.37
 20
128.53
 10
200.44
 20
128.5
 10
200.52
 20
128.48
 10
200.59
 20
128.45
 10
200.67
 20
128.43
 10
200.74
 20
128.41
 10
200.82
 20
128.4
 10
200.9
 20
128.39
 10
200.98
 20
128.38
 10
201.06
 20
128.37
 10
201.14
 20
128.37
 10
201.22
 20
128.37
 10
201.3
 20
128.37
 10
201.37
 20
128.38
 10
201.45
 20
128.39
 10
201.53
 20
128.4
 10
201.61
 20
128.42
 10
201.69
 20
128.44
 10
201.76
 20
128.46
 10
201.84
 20
128.48
 10
201.91
 20
128.51
 10
201.98
 20
128.54
 10
202.05
 20
128.57
 10
202.12
 20
128.61
 10
202.19
 20
128.65
 10
202.26
 20
128.69
 10
202.32
 20
128.74
 10
202.38
 20
128.78
 10
202.44
 20
128.83
 10
202.5
 20
128.89
 10
202.59
 20
128.98
 10
202.65
 20
129.06
 10
202.71
 20
129.14
 10
202.77
 20
129.23
 10
202.82
 20
129.32
 10
202.86
 20
129.41
 10
202.9
 20
129.5
 10
202.94
 20
129.6
 10
202.97
 20
129.7
 10
203.0
 20
129.8
 10
203.02
 20
129.9
 10
203.05
 20
130.07
 10
203.06
 20
130.17
 10
203.07
 20
130.27
 10
203.08
 20
130.38
 10
203.08
 20
130.48
 10
203.07
 20
130.58
 10
203.06
 20
130.68
 10
203.05
 20
130.78
 10
203.03
 20
130.88
 10
203.01
 20
130.98
 10
202.98
 20
131.08
 10
202.95
 20
131.18
 10
202.92
 20
131.28
 10
202.88
 20
131.37
 10
202.84
 20
131.47
 10
202.79
 20
131.56
 10
202.75
 20
131.65
 10
202.69
 20
131.74
 10
202.64
 20
131.82
 10
202.58
 20
131.91
 10
202.52
 20
131.99
 10
202.45
 20
132.07
 10
202.38
 20
132.14
 10
202.31
 20
132.22
 10
202.24
 20
132.29
 10
202.16
 20
132.35
 10
202.08
 20
132.42
 10
202.0
 20
132.48
 10
201.91
 20
132.53
 10
201.82
 20
132.58
 10
201.7
 20
132.65
  0
LWPOLYLINE
  5
AAEF4
330
1F
100
AcDbEntity
  8
General_Feature_Line
100
AcDbPolyline
 90
     3
 43
0.0
 10
183.73
 20
111.3
 10
184.25
 20
111.04
 10
188.54
 20
116.35
  0
LWPOLYLINE
  5
AAEF5
330
1F
100
AcDbEntity
  8
Road_Or_Track_Public_Line
100
AcDbPolyline
 90
     6
 43
0.0
 10
192.86
 20
117.67
 10
197.03
 20
113.55
 10
198.08
 20
113.5
 10
207.31
 20
122.24
 10
209.33
 20
123.74
 10
212.27
 20
123.23
  0
LWPOLYLINE
  5
AAEF6
330
1F
100
AcDbEntity
  8
Road_Or_Track_Public_Line
100
AcDbPolyline
 90
    17
 43
0.0
 10
138.68
 20
89.7
 10
143.32
 20
95.45
 10
145.04
 20
97.56
 10
147.42
 20
100.79
 10
150.09
 20
104.73
 10
153.01
 20
109.01
 10
156.73
 20
113.71
 10
167.38
 20
123.58
 10
168.27
 20
124.41
 10
168.79
 20
124.81
 10
169.32
 20
125.22
 10
170.46
 20
125.67
 10
171.55
 20
125.8
 10
172.74
 20
125.64
 10
173.58
 20
125.25
 10
174.16
 20
124.97
 10
176.55
 20
123.01
  0
LWPOLYLINE
  5
AAEF7
330
1F
100
AcDbEntity
  8
General_Feature_Line
100
AcDbPolyline
 90
     5
 43
0.0
 10
201.89
 20
96.52
 10
198.3
 20
99.44
 10
196.34
 20
97.03
 10
199.93
 20
94.11
 10
201.89
 20
96.52
  0
LWPOLYLINE
  5
AAEF8
330
1F
100
AcDbEntity
  8
Building_Outline_Line
100
AcDbPolyline
 90
     2
 43
0.0
 10
164.08
 20
84.5
 10
165.44
 20
86.18
  0
LWPOLYLINE
  5
AAEF9
330
1F
100
AcDbEntity
  8
Building_Outline_Line
100
AcDbPolyline
 90
     2
 43
0.0
 10
165.44
 20
86.18
 10
168.45
 20
89.9
  0
LWPOLYLINE
  5
AAEFA
330
1F
100
AcDbEntity
  8
Building_Outline_Line
100
AcDbPolyline
 90
     2
 43
0.0
 10
164.63
 20
99.32
 10
161.53
 20
95.49
  0
LWPOLYLINE
  5
AAEFB
330
1F
100
AcDbEntity
  8
Building_Outline_Line
100
AcDbPolyline
 90
     2
 43
0.0
 10
161.53
 20
95.49
 10
158.53
 20
91.77
  0
LWPOLYLINE
  5
AAEFC
330
1F
100
AcDbEntity
  8
Building_Outline_Line
100
AcDbPolyline
 90
     2
 43
0.0
 10
183.6
 20
111.14
 10
183.73
 20
111.3
  0
LWPOLYLINE
  5
AAEFD
330
1F
100
AcDbEntity
  8
Building_Outline_Line
100
AcDbPolyline
 90
     2
 43
0.0
 10
171.59
 20
96.28
 10
174.69
 20
100.11
  0
LWPOLYLINE
  5
AAEFE
330
1F
100
AcDbEntity
  8
Building_Outline_Line
100
AcDbPolyline
 90
     2
 43
0.0
 10
176.79
 20
116.86
 10
173.78
 20
113.14
  0
LWPOLYLINE
  5
AAEFF
330
1F
100
AcDbEntity
  8
General_Feature_Line
100
AcDbPolyline
 90
     3
 43
0.0
 10
177.44
 20
131.27
 10
179.17
 20
133.43
 10
176.57
 20
135.53
  0
LWPOLYLINE
  5
AAF00
330
1F
100
AcDbEntity
  8
Building_Outline_Line
100
AcDbPolyline
 90
     2
 43
0.0
 10
180.72
 20
128.17
 10
182.62
 20
130.52
  0
LWPOLYLINE
  5
AAF01
330
1F
100
AcDbEntity
  8
General_Feature_Line
100
AcDbPolyline
 90
     2
 43
0.0
 10
200.26
 20
130.86
 10
201.7
 20
132.65
  0
LWPOLYLINE
  5
AAF02
330
1F
100
AcDbEntity
  8
General_Feature_Line
100
AcDbPolyline
 90
     3
 43
0.0
 10
182.62
 20
130.52
 10
180.87
 20
131.93
 10
178.98
 20
129.6
  0
LWPOLYLINE
  5
AAF03
330
1F
100
AcDbEntity
  8
Road_Or_Track_Public_Line
100
AcDbPolyline
 90
     5
 43
0.0
 10
176.57
 20
135.53
 10
176.47
 20
135.0
 10
176.53
 20
133.56
 10
176.89
 20
132.28
 10
177.44
 20
131.27
  0
LWPOLYLINE
  5
AAF04
330
1F
100
AcDbEntity
  8
Road_Or_Track_Public_Line
100
AcDbPolyline
 90
     2
 43
0.0
 10
178.98
 20
129.6
 10
180.72
 20
128.17
  0
LWPOLYLINE
  5
AAF05
330
1F
100
AcDbEntity
  8
Building_Outline_Line
100
AcDbPolyline
 90
     2
 43
0.0
 10
182.62
 20
130.52
 10
183.74
 20
131.91
  0
LWPOLYLINE
  5
AAF06
330
1F
100
AcDbEntity
  8
General_Feature_Line
100
AcDbPolyline
 90
     2
 43
0.0
 10
172.66
 20
120.21
 10
176.79
 20
116.86
  0
LWPOLYLINE
  5
AAF07
330
1F
100
AcDbEntity
  8
General_Feature_Line
100
AcDbPolyline
 90
     2
 43
0.0
 10
154.02
 20
95.44
 10
157.01
 20
99.14
  0
LWPOLYLINE
  5
AAF08
330
1F
100
AcDbEntity
  8
General_Feature_Line
100
AcDbPolyline
 90
     2
 43
0.0
 10
166.67
 20
112.81
 10
169.67
 20
116.52
  0
LWPOLYLINE
  5
AAF09
330
1F
100
AcDbEntity
  8
General_Feature_Line
100
AcDbPolyline
 90
     4
 43
0.0
 10
187.57
 20
79.76
 10
186.32
 20
78.21
 10
183.97
 20
77.96
 10
179.48
 20
81.59
  0
LWPOLYLINE
  5
AAF0A
330
1F
100
AcDbEntity
  8
General_Feature_Line
100
AcDbPolyline
 90
     3
 43
0.0
 10
171.59
 20
96.28
 10
174.08
 20
94.27
 10
177.14
 20
98.14
  0
LWPOLYLINE
  5
AAF0B
330
1F
100
AcDbEntity
  8
Building_Outline_Line
100
AcDbPolyline
 90
     2
 43
0.0
 10
152.61
 20
84.45
 10
152.44
 20
84.24
  0
LWPOLYLINE
  5
AAF0C
330
1F
100
AcDbEntity
  8
Building_Outline_Line
100
AcDbPolyline
 90
     2
 43
0.0
 10
162.44
 20
82.46
 10
164.08
 20
84.5
  0
LWPOLYLINE
  5
AAF0D
330
1F
100
AcDbEntity
  8
Building_Outline_Line
100
AcDbPolyline
 90
     3
 43
0.0
 10
177.29
 20
116.71
 10
176.92
 20
117.02
 10
176.79
 20
116.86
  0
LWPOLYLINE
  5
AAF0E
330
1F
100
AcDbEntity
  8
Building_Outline_Line
100
AcDbPolyline
 90
     2
 43
0.0
 10
168.45
 20
89.9
 10
171.55
 20
93.73
  0
LWPOLYLINE
  5
AAF0F
330
1F
100
AcDbEntity
  8
General_Feature_Line
100
AcDbPolyline
 90
     2
 43
0.0
 10
151.01
 20
91.72
 10
155.52
 20
88.05
  0
LWPOLYLINE
  5
AAF10
330
1F
100
AcDbEntity
  8
General_Feature_Line
100
AcDbPolyline
 90
     2
 43
0.0
 10
166.67
 20
112.81
 10
170.78
 20
109.42
  0
LWPOLYLINE
  5
AAF11
330
1F
100
AcDbEntity
  8
General_Feature_Line
100
AcDbPolyline
 90
     2
 43
0.0
 10
169.67
 20
116.52
 10
173.78
 20
113.14
  0
LWPOLYLINE
  5
AAF12
330
1F
100
AcDbEntity
  8
General_Feature_Line
100
AcDbPolyline
 90
     2
 43
0.0
 10
169.78
 20
88.82
 10
168.45
 20
89.9
  0
LWPOLYLINE
  5
AAF13
330
1F
100
AcDbEntity
  8
General_Feature_Line
100
AcDbPolyline
 90
     2
 43
0.0
 10
157.01
 20
99.14
 10
161.53
 20
95.49
  0
LWPOLYLINE
  5
AAF14
330
1F
100
AcDbEntity
  8
General_Feature_Line
100
AcDbPolyline
 90
     3
 43
0.0
 10
157.01
 20
99.14
 10
160.11
 20
102.98
 10
164.63
 20
99.32
  0
LWPOLYLINE
  5
AAF15
330
1F
100
AcDbEntity
  8
General_Feature_Line
100
AcDbPolyline
 90
     2
 43
0.0
 10
163.64
 20
109.06
 10
167.77
 20
105.7
  0
LWPOLYLINE
  5
AAF16
330
1F
100
AcDbEntity
  8
General_Feature_Line
100
AcDbPolyline
 90
     3
 43
0.0
 10
164.67
 20
101.86
 10
160.53
 20
105.21
 10
163.64
 20
109.06
  0
LWPOLYLINE
  5
AAF17
330
1F
100
AcDbEntity
  8
General_Feature_Line
100
AcDbPolyline
 90
     2
 43
0.0
 10
163.64
 20
109.06
 10
166.67
 20
112.81
  0
LWPOLYLINE
  5
AAF18
330
1F
100
AcDbEntity
  8
General_Feature_Line
100
AcDbPolyline
 90
     3
 43
0.0
 10
171.55
 20
93.73
 10
172.9
 20
92.64
 10
169.78
 20
88.82
  0
LWPOLYLINE
  5
AAF19
330
1F
100
AcDbEntity
  8
General_Feature_Line
100
AcDbPolyline
 90
     2
 43
0.0
 10
169.78
 20
88.82
 10
165.4
 20
83.42
  0
LWPOLYLINE
  5
AAF1A
330
1F
100
AcDbEntity
  8
General_Feature_Line
100
AcDbPolyline
 90
     2
 43
0.0
 10
169.67
 20
116.52
 10
172.66
 20
120.21
  0
LWPOLYLINE
  5
AAF1B
330
1F
100
AcDbEntity
  8
General_Feature_Line
100
AcDbPolyline
 90
     2
 43
0.0
 10
154.02
 20
95.44
 10
158.53
 20
91.77
  0
LWPOLYLINE
  5
AAF1C
330
1F
100
AcDbEntity
  8
General_Feature_Line
100
AcDbPolyline
 90
     3
 43
0.0
 10
152.44
 20
84.24
 10
147.92
 20
87.9
 10
151.01
 20
91.72
  0
LWPOLYLINE
  5
AAF1D
330
1F
100
AcDbEntity
  8
General_Feature_Line
100
AcDbPolyline
 90
     2
 43
0.0
 10
151.01
 20
91.72
 10
154.02
 20
95.44
  0
LWPOLYLINE
  5
AAF1E
330
1F
100
AcDbEntity
  8
General_Feature_Line
100
AcDbPolyline
 90
     2
 43
0.0
 10
180.1
 20
101.88
 10
177.14
 20
98.14
  0
LWPOLYLINE
  5
AAF1F
330
1F
100
AcDbEntity
  8
Building_Outline_Line
100
AcDbPolyline
 90
     2
 43
0.0
 10
167.77
 20
105.7
 10
164.67
 20
101.86
  0
LWPOLYLINE
  5
AAF20
330
1F
100
AcDbEntity
  8
Building_Outline_Line
100
AcDbPolyline
 90
     2
 43
0.0
 10
164.67
 20
101.86
 10
171.59
 20
96.28
  0
LWPOLYLINE
  5
AAF21
330
1F
100
AcDbEntity
  8
Building_Outline_Line
100
AcDbPolyline
 90
     4
 43
0.0
 10
177.97
 20
95.61
 10
179.37
 20
94.47
 10
174.51
 20
88.51
 10
180.88
 20
83.32
  0
LWPOLYLINE
  5
AAF22
330
1F
100
AcDbEntity
  8
Building_Outline_Line
100
AcDbPolyline
 90
     2
 43
0.0
 10
181.81
 20
84.46
 10
187.57
 20
79.76
  0
LWPOLYLINE
  5
AAF23
330
1F
100
AcDbEntity
  8
Building_Outline_Line
100
AcDbPolyline
 90
     2
 43
0.0
 10
179.87
 20
97.94
 10
177.97
 20
95.61
  0
LWPOLYLINE
  5
AAF24
330
1F
100
AcDbEntity
  8
General_Feature_Line
100
AcDbPolyline
 90
     2
 43
0.0
 10
172.66
 20
120.21
 10
168.6
 20
123.49
  0
LWPOLYLINE
  5
AAF25
330
1F
100
AcDbEntity
  8
General_Feature_Line
100
AcDbPolyline
 90
     4
 43
0.0
 10
179.48
 20
81.59
 10
171.65
 20
87.93
 10
177.93
 20
95.64
 10
177.97
 20
95.61
  0
LWPOLYLINE
  5
AAF26
330
1F
100
AcDbEntity
  8
General_Feature_Line
100
AcDbPolyline
 90
     2
 43
0.0
 10
165.4
 20
83.42
 10
164.08
 20
84.5
  0
LWPOLYLINE
  5
AAF27
330
1F
100
AcDbEntity
  8
General_Feature_Line
100
AcDbPolyline
 90
     2
 43
0.0
 10
163.75
 20
81.4
 10
162.44
 20
82.46
  0
LWPOLYLINE
  5
AAF28
330
1F
100
AcDbEntity
  8
General_Feature_Line
100
AcDbPolyline
 90
     2
 43
0.0
 10
174.69
 20
100.11
 10
177.14
 20
98.14
  0
LWPOLYLINE
  5
AAF29
330
1F
100
AcDbEntity
  8
General_Feature_Line
100
AcDbPolyline
 90
     2
 43
0.0
 10
179.48
 20
81.59
 10
180.88
 20
83.32
  0
LWPOLYLINE
  5
AAF2A
330
1F
100
AcDbEntity
  8
Building_Outline_Line
100
AcDbPolyline
 90
     2
 43
0.0
 10
171.55
 20
93.73
 10
164.63
 20
99.32
  0
LWPOLYLINE
  5
AAF2B
330
1F
100
AcDbEntity
  8
General_Feature_Line
100
AcDbPolyline
 90
    15
 43
0.0
 10
138.68
 20
89.7
 10
139.6
 20
90.06
 10
140.77
 20
90.07
 10
141.97
 20
89.56
 10
145.61
 20
86.62
 10
159.21
 20
103.45
 10
154.28
 20
107.5
 10
154.2
 20
108.07
 10
154.51
 20
108.53
 10
155.12
 20
108.66
 10
155.54
 20
108.43
 10
159.35
 20
105.35
 10
171.44
 20
120.31
 10
168.21
 20
122.91
 10
168.6
 20
123.49
  0
LWPOLYLINE
  5
AAF2C
330
1F
100
AcDbEntity
  8
Building_Outline_Line
100
AcDbPolyline
 90
     4
 43
0.0
 10
139.31
 20
89.69
 10
137.24
 20
87.12
 10
129.76
 20
77.87
 10
129.92
 20
77.74
  0
LWPOLYLINE
  5
AAF2D
330
1F
100
AcDbEntity
  8
General_Feature_Line
100
AcDbPolyline
 90
     2
 43
0.0
 10
177.69
 20
103.83
 10
180.1
 20
101.88
  0
LWPOLYLINE
  5
AAF2E
330
1F
100
AcDbEntity
  8
General_Feature_Line
100
AcDbPolyline
 90
     2
 43
0.0
 10
183.03
 20
105.66
 10
180.1
 20
101.88
  0
LWPOLYLINE
  5
AAF2F
330
1F
100
AcDbEntity
  8
General_Feature_Line
100
AcDbPolyline
 90
     2
 43
0.0
 10
185.94
 20
109.26
 10
183.03
 20
105.66
  0
LWPOLYLINE
  5
AAF30
330
1F
100
AcDbEntity
  8
Building_Outline_Line
100
AcDbPolyline
 90
     2
 43
0.0
 10
180.7
 20
107.55
 10
183.6
 20
111.14
  0
LWPOLYLINE
  5
AAF31
330
1F
100
AcDbEntity
  8
General_Feature_Line
100
AcDbPolyline
 90
     2
 43
0.0
 10
180.7
 20
107.55
 10
183.03
 20
105.66
  0
LWPOLYLINE
  5
AAF32
330
1F
100
AcDbEntity
  8
General_Feature_Line
100
AcDbPolyline
 90
     2
 43
0.0
 10
160.6
 20
77.61
 10
163.75
 20
81.4
  0
LWPOLYLINE
  5
AAF33
330
1F
100
AcDbEntity
  8
General_Feature_Line
100
AcDbPolyline
 90
     2
 43
0.0
 10
165.4
 20
83.42
 10
163.75
 20
81.4
  0
LWPOLYLINE
  5
AAF34
330
1F
100
AcDbEntity
  8
Building_Outline_Line
100
AcDbPolyline
 90
     2
 43
0.0
 10
205.56
 20
78.3
 10
211.23
 20
80.28
  0
LWPOLYLINE
  5
AAF35
330
1F
100
AcDbEntity
  8
Road_Or_Track_Public_Line
100
AcDbPolyline
 90
     2
 43
0.0
 10
211.23
 20
80.28
 10
213.36
 20
74.32
  0
LWPOLYLINE
  5
AAF36
330
1F
100
AcDbEntity
  8
Building_Outline_Line
100
AcDbPolyline
 90
     3
 43
0.0
 10
152.44
 20
84.24
 10
149.92
 20
81.12
 10
139.31
 20
89.69
  0
LWPOLYLINE
  5
AAF37
330
1F
100
AcDbEntity
  8
Road_Or_Track_Public_Line
100
AcDbPolyline
 90
     4
 43
0.0
 10
138.68
 20
89.7
 10
138.02
 20
89.15
 10
129.63
 20
78.73
 10
128.8
 20
77.07
  0
LWPOLYLINE
  5
AAF38
330
1F
100
AcDbEntity
  8
Road_Or_Track_Public_Line
100
AcDbPolyline
 90
    12
 43
0.0
 10
115.04
 20
67.24
 10
117.21
 20
68.2
 10
119.8
 20
68.99
 10
121.17
 20
69.74
 10
122.57
 20
70.96
 10
123.77
 20
72.66
 10
124.49
 20
74.54
 10
124.97
 20
77.22
 10
125.67
 20
79.2
 10
126.81
 20
81.17
 10
144.42
 20
103.13
 10
151.13
 20
112.66
  0
LWPOLYLINE
  5
AAF39
330
1F
100
AcDbEntity
  8
General_Feature_Line
100
AcDbPolyline
 90
     6
 43
0.0
 10
149.01
 20
65.04
 10
138.67
 20
61.39
 10
137.54
 20
61.93
 10
134.27
 20
71.26
 10
136.9
 20
74.51
 10
137.06
 20
74.71
  0
LWPOLYLINE
  5
AAF3A
330
1F
100
AcDbEntity
  8
General_Feature_Line
100
AcDbPolyline
 90
     2
 43
0.0
 10
136.7
 20
58.81
 10
136.25
 20
58.65
  0
LWPOLYLINE
  5
AAF3B
330
1F
100
AcDbEntity
  8
General_Feature_Line
100
AcDbPolyline
 90
     3
 43
0.0
 10
136.7
 20
58.81
 10
134.69
 20
64.62
 10
131.6
 20
63.54
  0
LWPOLYLINE
  5
AAF3C
330
1F
100
AcDbEntity
  8
General_Feature_Line
100
AcDbPolyline
 90
     2
 43
0.0
 10
127.7
 20
60.02
 10
128.18
 20
58.65
  0
LWPOLYLINE
  5
AAF3D
330
1F
100
AcDbEntity
  8
General_Feature_Line
100
AcDbPolyline
 90
     6
 43
0.0
 10
141.93
 20
59.01
 10
142.86
 20
60.96
 10
146.86
 20
62.36
 10
151.73
 20
64.07
 10
153.08
 20
62.98
 10
153.23
 20
62.56
  0
LWPOLYLINE
  5
AAF3E
330
1F
100
AcDbEntity
  8
General_Feature_Line
100
AcDbPolyline
 90
     2
 43
0.0
 10
127.7
 20
60.02
 10
123.81
 20
58.65
  0
LWPOLYLINE
  5
AAF3F
330
1F
100
AcDbEntity
  8
Road_Or_Track_Public_Line
100
AcDbPolyline
 90
    12
 43
0.0
 10
128.8
 20
77.07
 10
128.39
 20
75.46
 10
127.97
 20
73.23
 10
127.2
 20
71.22
 10
126.01
 20
69.3
 10
124.38
 20
67.56
 10
122.23
 20
66.06
 10
120.37
 20
65.24
 10
117.31
 20
64.25
 10
115.8
 20
63.29
 10
114.99
 20
62.55
 10
113.36
 20
60.84
  0
LWPOLYLINE
  5
AAF40
330
1F
100
AcDbEntity
  8
General_Feature_Line
100
AcDbPolyline
 90
     3
 43
0.0
 10
186.47
 20
66.6
 10
188.8
 20
64.71
 10
191.72
 20
62.08
  0
LWPOLYLINE
  5
AAF41
330
1F
100
AcDbEntity
  8
Building_Outline_Line
100
AcDbPolyline
 90
     4
 43
0.0
 10
185.72
 20
76.01
 10
178.76
 20
67.47
 10
183.82
 20
63.35
 10
186.47
 20
66.6
  0
LWPOLYLINE
  5
AAF42
330
1F
100
AcDbEntity
  8
Building_Outline_Line
100
AcDbPolyline
 90
     3
 43
0.0
 10
147.76
 20
59.79
 10
147.5
 20
60.55
 10
153.23
 20
62.56
  0
LWPOLYLINE
  5
AAF43
330
1F
100
AcDbEntity
  8
General_Feature_Line
100
AcDbPolyline
 90
     2
 43
0.0
 10
131.6
 20
63.54
 10
133.31
 20
58.65
  0
LWPOLYLINE
  5
AAF44
330
1F
100
AcDbEntity
  8
General_Feature_Line
100
AcDbPolyline
 90
     2
 43
0.0
 10
137.7
 20
59.15
 10
136.7
 20
58.81
  0
LWPOLYLINE
  5
AAF45
330
1F
100
AcDbEntity
  8
General_Feature_Line
100
AcDbPolyline
 90
     4
 43
0.0
 10
127.7
 20
60.02
 10
130.4
 20
60.96
 10
129.73
 20
62.88
 10
131.6
 20
63.54
  0
LWPOLYLINE
  5
AAF46
330
1F
100
AcDbEntity
  8
General_Feature_Line
100
AcDbPolyline
 90
     4
 43
0.0
 10
153.9
 20
66.17
 10
153.02
 20
65.08
 10
151.78
 20
66.09
 10
149.01
 20
65.04
  0
LWPOLYLINE
  5
AAF47
330
1F
100
AcDbEntity
  8
Road_Or_Track_Public_Line
100
AcDbPolyline
 90
     7
 43
0.0
 10
204.57
 20
66.58
 10
206.11
 20
62.2
 10
207.29
 20
63.07
 10
208.26
 20
64.33
 10
208.77
 20
65.49
 10
209.05
 20
67.46
 10
208.99
 20
68.13
  0
LWPOLYLINE
  5
AAF48
330
1F
100
AcDbEntity
  8
Building_Outline_Line
100
AcDbPolyline
 90
     2
 43
0.0
 10
202.95
 20
66.01
 10
204.57
 20
66.58
  0
LWPOLYLINE
  5
AAF49
330
1F
100
AcDbEntity
  8
General_Feature_Line
100
AcDbPolyline
 90
     3
 43
0.0
 10
125.08
 20
113.16
 10
116.71
 20
122.85
 10
114.89
 20
124.98
  0
LWPOLYLINE
  5
AAF4A
330
1F
100
AcDbEntity
  8
Road_Or_Track_Public_Line
100
AcDbPolyline
 90
    11
 43
0.0
 10
122.76
 20
154.4
 10
122.71
 20
154.1
 10
122.61
 20
153.8
 10
122.41
 20
153.4
 10
122.31
 20
153.35
 10
122.26
 20
153.25
 10
122.16
 20
153.15
 10
122.06
 20
153.1
 10
122.01
 20
153.0
 10
121.91
 20
152.95
 10
113.36
 20
145.97
  0
LWPOLYLINE
  5
AAF4B
330
1F
100
AcDbEntity
  8
General_Feature_Line
100
AcDbPolyline
 90
     2
 43
0.0
 10
121.06
 20
109.61
 10
128.09
 20
101.5
  0
LWPOLYLINE
  5
AAF4C
330
1F
100
AcDbEntity
  8
Building_Outline_Line
100
AcDbPolyline
 90
     2
 43
0.0
 10
120.16
 20
85.0
 10
113.36
 20
77.54
  0
LWPOLYLINE
  5
AAF4D
330
1F
100
AcDbEntity
  8
General_Feature_Line
100
AcDbPolyline
 90
    18
 43
0.0
 10
113.41
 20
68.45
 10
119.56
 20
75.15
 10
125.86
 20
82.05
 10
126.76
 20
83.05
 10
127.66
 20
83.95
 10
128.41
 20
84.85
 10
129.26
 20
85.7
 10
130.36
 20
87.05
 10
131.46
 20
88.35
 10
132.76
 20
89.85
 10
134.11
 20
91.4
 10
136.31
 20
94.1
 10
138.11
 20
96.3
 10
141.51
 20
100.55
 10
141.96
 20
101.1
 10
142.56
 20
102.1
 10
143.21
 20
103.05
 10
146.52
 20
107.72
  0
LWPOLYLINE
  5
AAF4E
330
1F
100
AcDbEntity
  8
General_Feature_Line
100
AcDbPolyline
 90
     3
 43
0.0
 10
115.41
 20
74.05
 10
119.81
 20
78.9
 10
122.69
 20
82.02
  0
LWPOLYLINE
  5
AAF4F
330
1F
100
AcDbEntity
  8
General_Feature_Line
100
AcDbPolyline
 90
     2
 43
0.0
 10
139.41
 20
117.78
 10
142.44
 20
120.43
  0
LWPOLYLINE
  5
AAF50
330
1F
100
AcDbEntity
  8
General_Feature_Line
100
AcDbPolyline
 90
     4
 43
0.0
 10
136.29
 20
109.13
 10
139.66
 20
105.75
 10
135.36
 20
101.15
 10
132.23
 20
104.88
  0
LWPOLYLINE
  5
AAF51
330
1F
100
AcDbEntity
  8
Building_Outline_Line
100
AcDbPolyline
 90
     2
 43
0.0
 10
123.86
 20
89.05
 10
118.31
 20
95.5
  0
LWPOLYLINE
  5
AAF52
330
1F
100
AcDbEntity
  8
General_Feature_Line
100
AcDbPolyline
 90
     2
 43
0.0
 10
154.73
 20
118.18
 10
158.45
 20
122.88
  0
LWPOLYLINE
  5
AAF53
330
1F
100
AcDbEntity
  8
Building_Outline_Line
100
AcDbPolyline
 90
     2
 43
0.0
 10
114.56
 20
91.6
 10
117.5
 20
88.13
  0
LWPOLYLINE
  5
AAF54
330
1F
100
AcDbEntity
  8
General_Feature_Line
100
AcDbPolyline
 90
     2
 43
0.0
 10
123.78
 20
97.75
 10
127.31
 20
93.75
  0
LWPOLYLINE
  5
AAF55
330
1F
100
AcDbEntity
  8
Building_Division_Line
100
AcDbPolyline
 90
     2
 43
0.0
 10
117.5
 20
88.13
 10
120.16
 20
85.0
  0
LWPOLYLINE
  5
AAF56
330
1F
100
AcDbEntity
  8
General_Feature_Line
100
AcDbPolyline
 90
     2
 43
0.0
 10
125.08
 20
113.16
 10
121.06
 20
109.61
  0
LWPOLYLINE
  5
AAF57
330
1F
100
AcDbEntity
  8
Building_Outline_Line
100
AcDbPolyline
 90
     2
 43
0.0
 10
147.21
 20
108.62
 10
140.03
 20
116.98
  0
LWPOLYLINE
  5
AAF58
330
1F
100
AcDbEntity
  8
Building_Outline_Line
100
AcDbPolyline
 90
     3
 43
0.0
 10
140.03
 20
116.98
 10
143.06
 20
119.75
 10
142.44
 20
120.43
  0
LWPOLYLINE
  5
AAF59
330
1F
100
AcDbEntity
  8
General_Feature_Line
100
AcDbPolyline
 90
     3
 43
0.0
 10
146.52
 20
107.72
 10
146.61
 20
107.85
 10
147.21
 20
108.62
  0
LWPOLYLINE
  5
AAF5A
330
1F
100
AcDbEntity
  8
General_Feature_Line
100
AcDbPolyline
 90
     2
 43
0.0
 10
123.71
 20
123.75
 10
124.26
 20
123.08
  0
LWPOLYLINE
  5
AAF5B
330
1F
100
AcDbEntity
  8
General_Feature_Line
100
AcDbPolyline
 90
     2
 43
0.0
 10
136.29
 20
109.13
 10
132.04
 20
114.08
  0
LWPOLYLINE
  5
AAF5C
330
1F
100
AcDbEntity
  8
General_Feature_Line
100
AcDbPolyline
 90
     2
 43
0.0
 10
114.56
 20
91.6
 10
113.36
 20
92.98
  0
LWPOLYLINE
  5
AAF5D
330
1F
100
AcDbEntity
  8
Building_Outline_Line
100
AcDbPolyline
 90
     2
 43
0.0
 10
120.16
 20
85.0
 10
123.86
 20
89.05
  0
LWPOLYLINE
  5
AAF5E
330
1F
100
AcDbEntity
  8
General_Feature_Line
100
AcDbPolyline
 90
     2
 43
0.0
 10
139.41
 20
117.78
 10
140.03
 20
116.98
  0
LWPOLYLINE
  5
AAF5F
330
1F
100
AcDbEntity
  8
General_Feature_Line
100
AcDbPolyline
 90
     2
 43
0.0
 10
132.23
 20
104.88
 10
136.29
 20
109.13
  0
LWPOLYLINE
  5
AAF60
330
1F
100
AcDbEntity
  8
General_Feature_Line
100
AcDbPolyline
 90
     2
 43
0.0
 10
132.23
 20
104.88
 10
125.08
 20
113.16
  0
LWPOLYLINE
  5
AAF61
330
1F
100
AcDbEntity
  8
General_Feature_Line
100
AcDbPolyline
 90
    21
 43
0.0
 10
122.69
 20
82.02
 10
123.31
 20
82.7
 10
123.61
 20
83.05
 10
123.71
 20
83.95
 10
124.01
 20
84.8
 10
124.36
 20
85.3
 10
125.06
 20
86.05
 10
126.41
 20
87.6
 10
129.81
 20
91.2
 10
133.01
 20
94.55
 10
135.21
 20
96.9
 10
137.41
 20
99.3
 10
139.36
 20
101.3
 10
142.51
 20
104.45
 10
142.91
 20
105.35
 10
143.76
 20
106.8
 10
144.16
 20
107.45
 10
144.61
 20
107.8
 10
145.36
 20
107.9
 10
146.01
 20
107.75
 10
146.52
 20
107.72
  0
LWPOLYLINE
  5
AAF62
330
1F
100
AcDbEntity
  8
Building_Outline_Line
100
AcDbPolyline
 90
     2
 43
0.0
 10
118.31
 20
95.5
 10
114.56
 20
91.6
  0
LWPOLYLINE
  5
AAF63
330
1F
100
AcDbEntity
  8
Building_Outline_Line
100
AcDbPolyline
 90
     3
 43
0.0
 10
123.71
 20
123.75
 10
121.56
 20
126.25
 10
113.51
 20
135.8
  0
LWPOLYLINE
  5
AAF64
330
1F
100
AcDbEntity
  8
General_Feature_Line
100
AcDbPolyline
 90
     3
 43
0.0
 10
154.73
 20
118.18
 10
147.89
 20
126.25
 10
137.84
 20
138.3
  0
LWPOLYLINE
  5
AAF65
330
1F
100
AcDbEntity
  8
General_Feature_Line
100
AcDbPolyline
 90
     3
 43
0.0
 10
154.73
 20
118.18
 10
152.21
 20
115.0
 10
150.84
 20
113.22
  0
LWPOLYLINE
  5
AAF66
330
1F
100
AcDbEntity
  8
Building_Outline_Line
100
AcDbPolyline
 90
     2
 43
0.0
 10
147.21
 20
108.62
 10
150.84
 20
113.22
  0
LWPOLYLINE
  5
AAF67
330
1F
100
AcDbEntity
  8
General_Feature_Line
100
AcDbPolyline
 90
     2
 43
0.0
 10
116.16
 20
150.25
 10
117.31
 20
151.3
  0
LWPOLYLINE
  5
AAF68
330
1F
100
AcDbEntity
  8
Building_Outline_Line
100
AcDbPolyline
 90
     2
 43
0.0
 10
124.61
 20
144.55
 10
124.81
 20
144.35
  0
LWPOLYLINE
  5
AAF69
330
1F
100
AcDbEntity
  8
General_Feature_Line
100
AcDbPolyline
 90
     2
 43
0.0
 10
141.97
 20
142.82
 10
146.73
 20
146.82
  0
LWPOLYLINE
  5
AAF6A
330
1F
100
AcDbEntity
  8
Building_Outline_Line
100
AcDbPolyline
 90
     2
 43
0.0
 10
141.97
 20
142.82
 10
142.56
 20
142.1
  0
LWPOLYLINE
  5
AAF6B
330
1F
100
AcDbEntity
  8
General_Feature_Line
100
AcDbPolyline
 90
     2
 43
0.0
 10
133.01
 20
153.85
 10
134.27
 20
152.24
  0
LWPOLYLINE
  5
AAF6C
330
1F
100
AcDbEntity
  8
Building_Outline_Line
100
AcDbPolyline
 90
     2
 43
0.0
 10
113.51
 20
135.8
 10
113.36
 20
135.68
  0
LWPOLYLINE
  5
AAF6D
330
1F
100
AcDbEntity
  8
General_Feature_Line
100
AcDbPolyline
 90
     2
 43
0.0
 10
117.31
 20
151.3
 10
115.26
 20
155.9
  0
LWPOLYLINE
  5
AAF6E
330
1F
100
AcDbEntity
  8
Building_Outline_Line
100
AcDbPolyline
 90
     2
 43
0.0
 10
124.81
 20
144.35
 10
129.53
 20
148.28
  0
LWPOLYLINE
  5
AAF6F
330
1F
100
AcDbEntity
  8
General_Feature_Line
100
AcDbPolyline
 90
     2
 43
0.0
 10
128.31
 20
149.85
 10
123.56
 20
145.9
  0
LWPOLYLINE
  5
AAF70
330
1F
100
AcDbEntity
  8
Building_Outline_Line
100
AcDbPolyline
 90
     2
 43
0.0
 10
141.26
 20
143.7
 10
141.97
 20
142.82
  0
LWPOLYLINE
  5
AAF71
330
1F
100
AcDbEntity
  8
Building_Outline_Line
100
AcDbPolyline
 90
     2
 43
0.0
 10
147.01
 20
146.5
 10
146.73
 20
146.82
  0
LWPOLYLINE
  5
AAF72
330
1F
100
AcDbEntity
  8
Building_Outline_Line
100
AcDbPolyline
 90
     2
 43
0.0
 10
137.4
 20
138.83
 10
137.84
 20
138.3
  0
LWPOLYLINE
  5
AAF73
330
1F
100
AcDbEntity
  8
General_Feature_Line
100
AcDbPolyline
 90
     3
 43
0.0
 10
123.56
 20
145.9
 10
118.61
 20
141.75
 10
119.71
 20
140.42
  0
LWPOLYLINE
  5
AAF74
330
1F
100
AcDbEntity
  8
Building_Outline_Line
100
AcDbPolyline
 90
     2
 43
0.0
 10
136.56
 20
139.85
 10
137.4
 20
138.83
  0
LWPOLYLINE
  5
AAF75
330
1F
100
AcDbEntity
  8
Network_Or_Polygon_Closing_Geometry_Link_Polygon_Closing_Link_Line
100
AcDbPolyline
 90
     2
 43
0.0
 10
113.41
 20
138.25
 10
113.36
 20
138.12
  0
LWPOLYLINE
  5
AAF76
330
1F
100
AcDbEntity
  8
Building_Outline_Line
100
AcDbPolyline
 90
     3
 43
0.0
 10
113.41
 20
148.6
 10
114.21
 20
148.55
 10
116.16
 20
150.25
  0
LWPOLYLINE
  5
AAF77
330
1F
100
AcDbEntity
  8
General_Feature_Line
100
AcDbPolyline
 90
     2
 43
0.0
 10
133.01
 20
153.85
 10
128.31
 20
149.85
  0
LWPOLYLINE
  5
AAF78
330
1F
100
AcDbEntity
  8
General_Feature_Line
100
AcDbPolyline
 90
     2
 43
0.0
 10
128.31
 20
149.85
 10
129.53
 20
148.28
  0
LWPOLYLINE
  5
AAF79
330
1F
100
AcDbEntity
  8
Building_Outline_Line
100
AcDbPolyline
 90
     2
 43
0.0
 10
138.91
 20
156.1
 10
138.56
 20
156.4
  0
LWPOLYLINE
  5
AAF7A
330
1F
100
AcDbEntity
  8
Building_Outline_Line
100
AcDbPolyline
 90
     2
 43
0.0
 10
113.9
 20
155.24
 10
116.16
 20
150.25
  0
LWPOLYLINE
  5
AAF7B
330
1F
100
AcDbEntity
  8
Building_Outline_Line
100
AcDbPolyline
 90
     2
 43
0.0
 10
129.53
 20
148.28
 10
134.27
 20
152.24
  0
LWPOLYLINE
  5
AAF7C
330
1F
100
AcDbEntity
  8
General_Feature_Line
100
AcDbPolyline
 90
     2
 43
0.0
 10
137.4
 20
138.83
 10
140.26
 20
141.26
  0
LWPOLYLINE
  5
AAF7D
330
1F
100
AcDbEntity
  8
Building_Outline_Line
100
AcDbPolyline
 90
     2
 43
0.0
 10
119.71
 20
140.42
 10
128.81
 20
129.95
  0
LWPOLYLINE
  5
AAF7E
330
1F
100
AcDbEntity
  8
Building_Outline_Line
100
AcDbPolyline
 90
     2
 43
0.0
 10
135.21
 20
137.5
 10
134.56
 20
138.25
  0
LWPOLYLINE
  5
AAF7F
330
1F
100
AcDbEntity
  8
Building_Outline_Line
100
AcDbPolyline
 90
     3
 43
0.0
 10
137.84
 20
138.3
 10
135.91
 20
136.7
 10
135.21
 20
137.5
  0
LWPOLYLINE
  5
AAF80
330
1F
100
AcDbEntity
  8
Road_Or_Track_Public_Line
100
AcDbPolyline
 90
     2
 43
0.0
 10
132.03
 20
155.83
 10
126.0
 20
150.74
  0
LWPOLYLINE
  5
AAF81
330
1F
100
AcDbEntity
  8
General_Feature_Line
100
AcDbPolyline
 90
     2
 43
0.0
 10
115.26
 20
155.9
 10
113.99
 20
158.65
  0
LWPOLYLINE
  5
AAF82
330
1F
100
AcDbEntity
  8
General_Feature_Line
100
AcDbPolyline
 90
     2
 43
0.0
 10
128.81
 20
129.95
 10
130.81
 20
127.64
  0
LWPOLYLINE
  5
AAF83
330
1F
100
AcDbEntity
  8
Building_Outline_Line
100
AcDbPolyline
 90
     4
 43
0.0
 10
151.5
 20
150.67
 10
148.26
 20
148.0
 10
148.46
 20
147.7
 10
147.01
 20
146.5
  0
LWPOLYLINE
  5
AAF84
330
1F
100
AcDbEntity
  8
Building_Outline_Line
100
AcDbPolyline
 90
     4
 43
0.0
 10
161.07
 20
158.51
 10
161.91
 20
157.45
 10
160.06
 20
155.95
 10
159.24
 20
156.93
  0
LWPOLYLINE
  5
AAF85
330
1F
100
AcDbEntity
  8
Building_Outline_Line
100
AcDbPolyline
 90
     2
 43
0.0
 10
150.81
 20
151.5
 10
151.5
 20
150.67
  0
LWPOLYLINE
  5
AAF86
330
1F
100
AcDbEntity
  8
Building_Outline_Line
100
AcDbPolyline
 90
     2
 43
0.0
 10
169.66
 20
157.35
 10
160.31
 20
149.4
  0
LWPOLYLINE
  5
AAF87
330
1F
100
AcDbEntity
  8
Building_Division_Line
100
AcDbPolyline
 90
     2
 43
0.0
 10
138.91
 20
156.1
 10
146.06
 20
147.6
  0
LWPOLYLINE
  5
AAF88
330
1F
100
AcDbEntity
  8
Building_Outline_Line
100
AcDbPolyline
 90
     3
 43
0.0
 10
142.56
 20
142.1
 10
140.76
 20
140.65
 10
140.26
 20
141.26
  0
LWPOLYLINE
  5
AAF89
330
1F
100
AcDbEntity
  8
Road_Or_Track_Public_Line
100
AcDbPolyline
 90
     7
 43
0.0
 10
122.76
 20
154.4
 10
122.81
 20
154.85
 10
122.76
 20
155.1
 10
122.66
 20
155.4
 10
122.51
 20
155.7
 10
122.41
 20
155.8
 10
121.11
 20
158.65
  0
LWPOLYLINE
  5
AAF8A
330
1F
100
AcDbEntity
  8
General_Feature_Line
100
AcDbPolyline
 90
     2
 43
0.0
 10
137.61
 20
157.75
 10
138.56
 20
156.4
  0
LWPOLYLINE
  5
AAF8B
330
1F
100
AcDbEntity
  8
General_Feature_Line
100
AcDbPolyline
 90
     2
 43
0.0
 10
119.46
 20
157.7
 10
119.02
 20
158.65
  0
LWPOLYLINE
  5
AAF8C
330
1F
100
AcDbEntity
  8
General_Feature_Line
100
AcDbPolyline
 90
     2
 43
0.0
 10
115.26
 20
155.9
 10
119.46
 20
157.7
  0
LWPOLYLINE
  5
AAF8D
330
1F
100
AcDbEntity
  8
Building_Outline_Line
100
AcDbPolyline
 90
     2
 43
0.0
 10
146.06
 20
147.6
 10
141.26
 20
143.7
  0
LWPOLYLINE
  5
AAF8E
330
1F
100
AcDbEntity
  8
Road_Or_Track_Public_Line
100
AcDbPolyline
 90
    15
 43
0.0
 10
126.0
 20
150.74
 10
118.36
 20
144.3
 10
117.76
 20
144.0
 10
117.71
 20
143.9
 10
117.61
 20
143.85
 10
117.56
 20
143.75
 10
117.46
 20
143.7
 10
117.41
 20
143.6
 10
117.31
 20
143.5
 10
117.26
 20
143.35
 10
117.16
 20
143.25
 10
117.11
 20
143.15
 10
117.01
 20
142.85
 10
117.01
 20
142.65
 10
116.96
 20
142.08
  0
LWPOLYLINE
  5
AAF8F
330
1F
100
AcDbEntity
  8
Building_Outline_Line
100
AcDbPolyline
 90
     4
 43
0.0
 10
206.66
 20
158.1
 10
209.51
 20
154.6
 10
210.91
 20
155.8
 10
212.56
 20
153.7
  0
LWPOLYLINE
  5
AAF90
330
1F
100
AcDbEntity
  8
General_Feature_Line
100
AcDbPolyline
 90
     3
 43
0.0
 10
212.56
 20
153.7
 10
211.26
 20
152.6
 10
210.41
 20
151.9
  0
LWPOLYLINE
  5
AAF91
330
1F
100
AcDbEntity
  8
General_Feature_Line
100
AcDbPolyline
 90
     2
 43
0.0
 10
206.66
 20
158.1
 10
195.76
 20
149.85
  0
LWPOLYLINE
  5
AAF92
330
1F
100
AcDbEntity
  8
Building_Outline_Line
100
AcDbPolyline
 90
     2
 43
0.0
 10
200.81
 20
144.35
 10
209.58
 20
133.98
  0
LWPOLYLINE
  5
AAF93
330
1F
100
AcDbEntity
  8
Building_Outline_Line
100
AcDbPolyline
 90
     2
 43
0.0
 10
209.58
 20
133.98
 10
213.36
 20
136.96
  0
LWPOLYLINE
  5
AAF94
330
1F
100
AcDbEntity
  8
Building_Outline_Line
100
AcDbPolyline
 90
     2
 43
0.0
 10
206.97
 20
158.34
 10
206.66
 20
158.1
  0
LWPOLYLINE
  5
AAF95
330
1F
100
AcDbEntity
  8
Network_Or_Polygon_Closing_Geometry_Link_Polygon_Closing_Link_Line
100
AcDbPolyline
 90
     2
 43
0.0
 10
195.76
 20
149.85
 10
200.81
 20
144.35
  0
LWPOLYLINE
  5
AAF96
330
1F
100
AcDbEntity
  8
General_Feature_Line
100
AcDbPolyline
 90
     2
 43
0.0
 10
113.9
 20
155.24
 10
115.26
 20
155.9
  0
LWPOLYLINE
  5
AAF97
330
1F
100
AcDbEntity
  8
General_Feature_Line
100
AcDbPolyline
 90
     3
 43
0.0
 10
117.31
 20
151.3
 10
121.06
 20
154.25
 10
119.46
 20
157.7
  0
LWPOLYLINE
  5
AAF98
330
1F
100
AcDbEntity
  8
General_Feature_Line
100
AcDbPolyline
 90
     4
 43
0.0
 10
182.81
 20
152.8
 10
181.16
 20
154.7
 10
179.26
 20
156.85
 10
177.68
 20
158.65
  0
LWPOLYLINE
  5
AAF99
330
1F
100
AcDbEntity
  8
General_Feature_Line
100
AcDbPolyline
 90
     2
 43
0.0
 10
161.07
 20
158.51
 10
161.24
 20
158.65
  0
LWPOLYLINE
  5
AAF9A
330
1F
100
AcDbEntity
  8
General_Feature_Line
100
AcDbPolyline
 90
     2
 43
0.0
 10
156.11
 20
154.45
 10
160.31
 20
149.4
  0
LWPOLYLINE
  5
AAF9B
330
1F
100
AcDbEntity
  8
Network_Or_Polygon_Closing_Geometry_Link_Polygon_Closing_Link_Line
100
AcDbPolyline
 90
     2
 43
0.0
 10
122.76
 20
154.4
 10
126.0
 20
150.74
  0
LWPOLYLINE
  5
AAF9C
330
1F
100
AcDbEntity
  8
Building_Outline_Line
100
AcDbPolyline
 90
     2
 43
0.0
 10
178.06
 20
147.4
 10
169.66
 20
157.35
  0
LWPOLYLINE
  5
AAF9D
330
1F
100
AcDbEntity
  8
Building_Outline_Line
100
AcDbPolyline
 90
     2
 43
0.0
 10
138.56
 20
156.4
 10
141.23
 20
158.65
  0
LWPOLYLINE
  5
AAF9E
330
1F
100
AcDbEntity
  8
Network_Or_Polygon_Closing_Geometry_Link_Polygon_Closing_Link_Line
100
AcDbPolyline
 90
     2
 43
0.0
 10
122.76
 20
154.4
 10
126.34
 20
158.65
  0
LWPOLYLINE
  5
AAF9F
330
1F
100
AcDbEntity
  8
General_Feature_Line
100
AcDbPolyline
 90
     2
 43
0.0
 10
155.37
 20
155.24
 10
156.11
 20
154.45
  0
LWPOLYLINE
  5
AAFA0
330
1F
100
AcDbEntity
  8
General_Feature_Line
100
AcDbPolyline
 90
     2
 43
0.0
 10
156.11
 20
154.45
 10
159.24
 20
156.93
  0
LWPOLYLINE
  5
AAFA1
330
1F
100
AcDbEntity
  8
Building_Outline_Line
100
AcDbPolyline
 90
     3
 43
0.0
 10
159.24
 20
156.93
 10
158.51
 20
157.8
 10
155.37
 20
155.24
  0
LWPOLYLINE
  5
AAFA2
330
1F
100
AcDbEntity
  8
Building_Outline_Line
100
AcDbPolyline
 90
     2
 43
0.0
 10
155.37
 20
155.24
 10
150.81
 20
151.5
  0
LWPOLYLINE
  5
AAFA3
330
1F
100
AcDbEntity
  8
General_Feature_Line
100
AcDbPolyline
 90
     2
 43
0.0
 10
151.5
 20
150.67
 10
156.11
 20
154.45
  0
LWPOLYLINE
  5
AAFA4
330
1F
100
AcDbEntity
  8
General_Feature_Line
100
AcDbPolyline
 90
     2
 43
0.0
 10
169.66
 20
157.35
 10
168.56
 20
158.65
  0
LWPOLYLINE
  5
AAFA5
330
1F
100
AcDbEntity
  8
General_Feature_Line
100
AcDbPolyline
 90
     2
 43
0.0
 10
137.61
 20
157.75
 10
133.01
 20
153.85
  0
LWPOLYLINE
  5
AAFA6
330
1F
100
AcDbEntity
  8
Building_Outline_Line
100
AcDbPolyline
 90
     2
 43
0.0
 10
134.27
 20
152.24
 10
138.91
 20
156.1
  0
LWPOLYLINE
  5
AAFA7
330
1F
100
AcDbEntity
  8
Building_Outline_Line
100
AcDbPolyline
 90
     2
 43
0.0
 10
142.89
 20
122.63
 10
150.84
 20
113.22
  0
LWPOLYLINE
  5
AAFA8
330
1F
100
AcDbEntity
  8
Building_Division_Line
100
AcDbPolyline
 90
     3
 43
0.0
 10
114.89
 20
124.98
 10
113.81
 20
126.25
 10
113.36
 20
126.78
  0
LWPOLYLINE
  5
AAFA9
330
1F
100
AcDbEntity
  8
General_Feature_Line
100
AcDbPolyline
 90
     2
 43
0.0
 10
132.04
 20
114.08
 10
124.26
 20
123.08
  0
LWPOLYLINE
  5
AAFAA
330
1F
100
AcDbEntity
  8
Building_Outline_Line
100
AcDbPolyline
 90
     3
 43
0.0
 10
142.44
 20
120.43
 10
141.56
 20
121.4
 10
142.89
 20
122.63
  0
LWPOLYLINE
  5
AAFAB
330
1F
100
AcDbEntity
  8
General_Feature_Line
100
AcDbPolyline
 90
    11
 43
0.0
 10
113.41
 20
138.25
 10
113.56
 20
138.15
 10
113.71
 20
138.0
 10
114.06
 20
137.7
 10
114.26
 20
137.55
 10
114.31
 20
137.45
 10
114.51
 20
137.3
 10
114.56
 20
137.2
 10
123.69
 20
126.25
 10
125.41
 20
124.25
 10
124.26
 20
123.08
  0
LWPOLYLINE
  5
AAFAC
330
1F
100
AcDbEntity
  8
General_Feature_Line
100
AcDbPolyline
 90
     3
 43
0.0
 10
158.45
 20
122.88
 10
155.56
 20
126.25
 10
142.56
 20
142.1
  0
LWPOLYLINE
  5
AAFAD
330
1F
100
AcDbEntity
  8
General_Feature_Line
100
AcDbPolyline
 90
     3
 43
0.0
 10
132.46
 20
135.05
 10
139.86
 20
126.25
 10
142.89
 20
122.63
  0
LWPOLYLINE
  5
AAFAE
330
1F
100
AcDbEntity
  8
General_Feature_Line
100
AcDbPolyline
 90
     3
 43
0.0
 10
130.81
 20
127.64
 10
132.01
 20
126.25
 10
139.41
 20
117.78
  0
LWPOLYLINE
  5
AAFAF
330
1F
100
AcDbEntity
  8
General_Feature_Line
100
AcDbPolyline
 90
     3
 43
0.0
 10
158.45
 20
122.88
 10
161.11
 20
126.25
 10
162.46
 20
127.9
  0
LWPOLYLINE
  5
AAFB0
330
1F
100
AcDbEntity
  8
Building_Outline_Line
100
AcDbPolyline
 90
     6
 43
0.0
 10
114.89
 20
124.98
 10
116.39
 20
126.25
 10
117.01
 20
126.95
 10
117.59
 20
126.25
 10
121.41
 20
121.8
 10
123.71
 20
123.75
  0
LWPOLYLINE
  5
AAFB1
330
1F
100
AcDbEntity
  8
Building_Outline_Line
100
AcDbPolyline
 90
     2
 43
0.0
 10
119.71
 20
140.42
 10
124.61
 20
144.55
  0
LWPOLYLINE
  5
AAFB2
330
1F
100
AcDbEntity
  8
General_Feature_Line
100
AcDbPolyline
 90
     2
 43
0.0
 10
123.56
 20
145.9
 10
124.61
 20
144.55
  0
LWPOLYLINE
  5
AAFB3
330
1F
100
AcDbEntity
  8
Building_Division_Line
100
AcDbPolyline
 90
     2
 43
0.0
 10
134.27
 20
152.24
 10
141.26
 20
143.7
  0
LWPOLYLINE
  5
AAFB4
330
1F
100
AcDbEntity
  8
Building_Outline_Line
100
AcDbPolyline
 90
     3
 43
0.0
 10
131.8
 20
135.96
 10
128.96
 20
133.6
 10
129.74
 20
132.63
  0
LWPOLYLINE
  5
AAFB5
330
1F
100
AcDbEntity
  8
Network_Or_Polygon_Closing_Geometry_Link_Polygon_Closing_Link_Line
100
AcDbPolyline
 90
     2
 43
0.0
 10
166.36
 20
132.95
 10
170.06
 20
137.9
  0
LWPOLYLINE
  5
AAFB6
330
1F
100
AcDbEntity
  8
Building_Outline_Line
100
AcDbPolyline
 90
     2
 43
0.0
 10
146.73
 20
146.82
 10
146.06
 20
147.6
  0
LWPOLYLINE
  5
AAFB7
330
1F
100
AcDbEntity
  8
Building_Outline_Line
100
AcDbPolyline
 90
     3
 43
0.0
 10
129.74
 20
132.63
 10
130.66
 20
131.5
 10
128.81
 20
129.95
  0
LWPOLYLINE
  5
AAFB8
330
1F
100
AcDbEntity
  8
General_Feature_Line
100
AcDbPolyline
 90
     2
 43
0.0
 10
132.46
 20
135.05
 10
131.8
 20
135.96
  0
LWPOLYLINE
  5
AAFB9
330
1F
100
AcDbEntity
  8
General_Feature_Line
100
AcDbPolyline
 90
     2
 43
0.0
 10
129.74
 20
132.63
 10
132.46
 20
135.05
  0
LWPOLYLINE
  5
AAFBA
330
1F
100
AcDbEntity
  8
General_Feature_Line
100
AcDbPolyline
 90
     2
 43
0.0
 10
131.8
 20
135.96
 10
124.81
 20
144.35
  0
LWPOLYLINE
  5
AAFBB
330
1F
100
AcDbEntity
  8
Network_Or_Polygon_Closing_Geometry_Link_Polygon_Closing_Link_Line
100
AcDbPolyline
 90
     2
 43
0.0
 10
113.41
 20
138.25
 10
116.96
 20
142.08
  0
LWPOLYLINE
  5
AAFBC
330
1F
100
AcDbEntity
  8
General_Feature_Line
100
AcDbPolyline
 90
     3
 43
0.0
 10
147.01
 20
146.5
 10
150.76
 20
141.85
 10
162.46
 20
127.9
  0
LWPOLYLINE
  5
AAFBD
330
1F
100
AcDbEntity
  8
Building_Outline_Line
100
AcDbPolyline
 90
     2
 43
0.0
 10
170.06
 20
137.9
 10
178.06
 20
147.4
  0
LWPOLYLINE
  5
AAFBE
330
1F
100
AcDbEntity
  8
Building_Outline_Line
100
AcDbPolyline
 90
     2
 43
0.0
 10
165.52
 20
143.26
 10
170.06
 20
137.9
  0
LWPOLYLINE
  5
AAFBF
330
1F
100
AcDbEntity
  8
General_Feature_Line
100
AcDbPolyline
 90
     4
 43
0.0
 10
160.31
 20
149.4
 10
158.46
 20
147.9
 10
163.66
 20
141.7
 10
165.52
 20
143.26
  0
LWPOLYLINE
  5
AAFC0
330
1F
100
AcDbEntity
  8
General_Feature_Line
100
AcDbPolyline
 90
     2
 43
0.0
 10
166.36
 20
132.95
 10
162.46
 20
127.9
  0
LWPOLYLINE
  5
AAFC1
330
1F
100
AcDbEntity
  8
General_Feature_Line
100
AcDbPolyline
 90
     6
 43
0.0
 10
151.5
 20
150.67
 10
155.16
 20
146.25
 10
158.56
 20
142.2
 10
161.56
 20
138.65
 10
164.71
 20
134.95
 10
166.36
 20
132.95
  0
LWPOLYLINE
  5
AAFC2
330
1F
100
AcDbEntity
  8
Building_Outline_Line
100
AcDbPolyline
 90
     2
 43
0.0
 10
160.31
 20
149.4
 10
165.52
 20
143.26
  0
LWPOLYLINE
  5
AAFC3
330
1F
100
AcDbEntity
  8
Building_Outline_Line
100
AcDbPolyline
 90
     2
 43
0.0
 10
134.56
 20
138.25
 10
131.8
 20
135.96
  0
LWPOLYLINE
  5
AAFC4
330
1F
100
AcDbEntity
  8
General_Feature_Line
100
AcDbPolyline
 90
     7
 43
0.0
 10
116.96
 20
142.08
 10
117.01
 20
141.95
 10
117.01
 20
141.75
 10
117.06
 20
141.6
 10
117.11
 20
141.5
 10
128.96
 20
127.85
 10
130.81
 20
127.64
  0
LWPOLYLINE
  5
AAFC5
330
1F
100
AcDbEntity
  8
Building_Outline_Line
100
AcDbPolyline
 90
     3
 43
0.0
 10
140.26
 20
141.26
 10
139.46
 20
142.25
 10
136.56
 20
139.85
  0
LWPOLYLINE
  5
AAFC6
330
1F
100
AcDbEntity
  8
General_Feature_Line
100
AcDbPolyline
 90
     2
 43
0.0
 10
113.51
 20
135.8
 10
113.36
 20
135.96
  0
LWPOLYLINE
  5
AAFC7
330
1F
100
AcDbEntity
  8
General_Feature_Line
100
AcDbPolyline
 90
     2
 43
0.0
 10
132.46
 20
135.05
 10
135.21
 20
137.5
  0
LWPOLYLINE
  5
AAFC8
330
1F
100
AcDbEntity
  8
General_Feature_Line
100
AcDbPolyline
 90
     2
 43
0.0
 10
129.53
 20
148.28
 10
136.56
 20
139.85
  0
LWPOLYLINE
  5
AAFC9
330
1F
100
AcDbEntity
  8
Building_Outline_Line
100
AcDbPolyline
 90
     2
 43
0.0
 10
210.41
 20
151.9
 10
200.81
 20
144.35
  0
POINT
  5
AAFCA
330
1F
100
AcDbEntity
  8
Roadside_Structure_Point
100
AcDbPoint
 10
179.46
 20
146.27
 30
0.0
  0
POINT
  5
AAFCB
330
1F
100
AcDbEntity
  8
Roadside_Structure_Point
100
AcDbPoint
 10
180.16
 20
145.7
 30
0.0
  0
POINT
  5
AAFCC
330
1F
100
AcDbEntity
  8
Roadside_Structure_Point
100
AcDbPoint
 10
181.01
 20
145.01
 30
0.0
  0
POINT
  5
AAFCD
330
1F
100
AcDbEntity
  8
Roadside_Structure_Point
100
AcDbPoint
 10
181.79
 20
144.38
 30
0.0
  0
LWPOLYLINE
  5
AAFCE
330
1F
100
AcDbEntity
  8
UKPM - grid
100
AcDbPolyline
 90
     5
 43
0.0
 10
113.36
 20
58.65
 10
113.36
 20
158.65
 10
213.36
 20
158.65
 10
213.36
 20
58.65
 10
113.36
 20
58.65
  0
LWPOLYLINE
  5
AAFCF
330
1F
100
AcDbEntity
  8
UKPM - scale and labels
100
AcDbPolyline
 90
     2
 43
0.0
 10
138.36
 20
28.65
 10
198.36
 20
28.65
  0
LWPOLYLINE
  5
AAFD0
330
1F
100
AcDbEntity
  8
UKPM - scale and labels
100
AcDbPolyline
 90
     2
 43
0.0
 10
138.36
 20
31.05
 10
138.36
 20
26.25
  0
LWPOLYLINE
  5
AAFD1
330
1F
100
AcDbEntity
  8
UKPM - scale and labels
100
AcDbPolyline
 90
     2
 43
0.0
 10
148.36
 20
31.05
 10
148.36
 20
26.25
  0
LWPOLYLINE
  5
AAFD2
330
1F
100
AcDbEntity
  8
UKPM - scale and labels
100
AcDbPolyline
 90
     2
 43
0.0
 10
158.36
 20
31.05
 10
158.36
 20
26.25
  0
LWPOLYLINE
  5
AAFD3
330
1F
100
AcDbEntity
  8
UKPM - scale and labels
100
AcDbPolyline
 90
     2
 43
0.0
 10
168.36
 20
31.05
 10
168.36
 20
26.25
  0
LWPOLYLINE
  5
AAFD4
330
1F
100
AcDbEntity
  8
UKPM - scale and labels
100
AcDbPolyline
 90
     2
 43
0.0
 10
178.36
 20
31.05
 10
178.36
 20
26.25
  0
LWPOLYLINE
  5
AAFD5
330
1F
100
AcDbEntity
  8
UKPM - scale and labels
100
AcDbPolyline
 90
     2
 43
0.0
 10
188.36
 20
31.05
 10
188.36
 20
26.25
  0
LWPOLYLINE
  5
AAFD6
330
1F
100
AcDbEntity
  8
UKPM - scale and labels
100
AcDbPolyline
 90
     2
 43
0.0
 10
198.36
 20
31.05
 10
198.36
 20
26.25
  0
LWPOLYLINE
  5
AAFD7
330
1F
100
AcDbEntity
  8
UKPM - scale and labels
100
AcDbPolyline
 90
     2
 43
0.0
 10
139.36
 20
31.05
 10
139.36
 20
28.65
  0
LWPOLYLINE
  5
AAFD8
330
1F
100
AcDbEntity
  8
UKPM - scale and labels
100
AcDbPolyline
 90
     2
 43
0.0
 10
140.36
 20
31.05
 10
140.36
 20
28.65
  0
LWPOLYLINE
  5
AAFD9
330
1F
100
AcDbEntity
  8
UKPM - scale and labels
100
AcDbPolyline
 90
     2
 43
0.0
 10
141.36
 20
31.05
 10
141.36
 20
28.65
  0
LWPOLYLINE
  5
AAFDA
330
1F
100
AcDbEntity
  8
UKPM - scale and labels
100
AcDbPolyline
 90
     2
 43
0.0
 10
142.36
 20
31.05
 10
142.36
 20
28.65
  0
LWPOLYLINE
  5
AAFDB
330
1F
100
AcDbEntity
  8
UKPM - scale and labels
100
AcDbPolyline
 90
     2
 43
0.0
 10
143.86
 20
31.05
 10
143.86
 20
28.65
  0
LWPOLYLINE
  5
AAFDC
330
1F
100
AcDbEntity
  8
UKPM - scale and labels
100
AcDbPolyline
 90
     2
 43
0.0
 10
144.36
 20
31.05
 10
144.36
 20
28.65
  0
LWPOLYLINE
  5
AAFDD
330
1F
100
AcDbEntity
  8
UKPM - scale and labels
100
AcDbPolyline
 90
     2
 43
0.0
 10
144.86
 20
31.05
 10
144.86
 20
28.65
  0
LWPOLYLINE
  5
AAFDE
330
1F
100
AcDbEntity
  8
UKPM - scale and labels
100
AcDbPolyline
 90
     2
 43
0.0
 10
145.36
 20
31.05
 10
145.36
 20
28.65
  0
LWPOLYLINE
  5
AAFDF
330
1F
100
AcDbEntity
  8
UKPM - scale and labels
100
AcDbPolyline
 90
     2
 43
0.0
 10
145.86
 20
31.05
 10
145.86
 20
28.65
  0
LWPOLYLINE
  5
AAFE0
330
1F
100
AcDbEntity
  8
UKPM - scale and labels
100
AcDbPolyline
 90
     2
 43
0.0
 10
146.36
 20
31.05
 10
146.36
 20
28.65
  0
LWPOLYLINE
  5
AAFE1
330
1F
100
AcDbEntity
  8
UKPM - scale and labels
100
AcDbPolyline
 90
     2
 43
0.0
 10
146.86
 20
31.05
 10
146.86
 20
28.65
  0
LWPOLYLINE
  5
AAFE2
330
1F
100
AcDbEntity
  8
UKPM - scale and labels
100
AcDbPolyline
 90
     2
 43
0.0
 10
147.36
 20
31.05
 10
147.36
 20
28.65
  0
LWPOLYLINE
  5
AAFE3
330
1F
100
AcDbEntity
  8
UKPM - scale and labels
100
AcDbPolyline
 90
     2
 43
0.0
 10
147.86
 20
31.05
 10
147.86
 20
28.65
  0
LWPOLYLINE
  5
AAFE4
330
1F
100
AcDbEntity
  8
UKPM - scale and labels
100
AcDbPolyline
 90
     2
 43
0.0
 10
143.36
 20
31.05
 10
143.36
 20
26.25
  0
LWPOLYLINE
  5
AAFE5
330
1F
100
AcDbEntity
  8
UKPM - scale and labels
100
AcDbPolyline
 90
     2
 43
0.0
 10
145.86
 20
28.65
 10
145.86
 20
26.25
  0
MTEXT
  5
AAFE6
330
1F
100
AcDbEntity
  8
UKPM - scale and labels
100
AcDbMText
 10
168.36
 20
21.45
 30
0.0
 40
2.4
 71
     5
 72
     1
  1
Metres
  0
MTEXT
  5
AAFE7
330
1F
100
AcDbEntity
  8
UKPM - scale and labels
100
AcDbMText
 10
138.36
 20
33.45
 30
0.0
 40
2.4
 71
     5
 72
     1
  1
10
  0
MTEXT
  5
AAFE8
330
1F
100
AcDbEntity
  8
UKPM - scale and labels
100
AcDbMText
 10
148.36
 20
33.45
 30
0.0
 40
2.4
 71
     5
 72
     1
  1
0
  0
MTEXT
  5
AAFE9
330
1F
100
AcDbEntity
  8
UKPM - scale and labels
100
AcDbMText
 10
158.36
 20
33.45
 30
0.0
 40
2.4
 71
     5
 72
     1
  1
10
  0
MTEXT
  5
AAFEA
330
1F
100
AcDbEntity
  8
UKPM - scale and labels
100
AcDbMText
 10
168.36
 20
33.45
 30
0.0
 40
2.4
 71
     5
 72
     1
  1
20
  0
MTEXT
  5
AAFEB
330
1F
100
AcDbEntity
  8
UKPM - scale and labels
100
AcDbMText
 10
178.36
 20
33.45
 30
0.0
 40
2.4
 71
     5
 72
     1
  1
30
  0
MTEXT
  5
AAFEC
330
1F
100
AcDbEntity
  8
UKPM - scale and labels
100
AcDbMText
 10
188.36
 20
33.45
 30
0.0
 40
2.4
 71
     5
 72
     1
  1
40
  0
MTEXT
  5
AAFED
330
1F
100
AcDbEntity
  8
UKPM - scale and labels
100
AcDbMText
 10
198.36
 20
33.45
 30
0.0
 40
2.4
 71
     5
 72
     1
  1
50
  0
MTEXT
  5
AAFEE
330
1F
100
AcDbEntity
  8
UKPM - scale and labels
100
AcDbMText
 10
93.36
 20
9.65
 30
0.0
 40
2.6
 71
     7
 72
     1
  1
Produced on 17 July 2014 from the Ordnance Survey National Geographic Database and incorporating surveyed revision available at this date.
  0
MTEXT
  5
AAFEF
330
1F
100
AcDbEntity
  8
UKPM - scale and labels
100
AcDbMText
 10
93.36
 20
4.45
 30
0.0
 40
2.6
 71
     7
 72
     1
  1
Reproduction in whole or part is prohibited without the prior permission of Ordnance Survey.
  0
MTEXT
  5
AAFF0
330
1F
100
AcDbEntity
  8
UKPM - scale and labels
100
AcDbMText
 10
93.36
 20
-0.75
 30
0.0
 40
2.6
 71
     7
 72
     1
  1
Crown copyright 2014. Supplied by copla ltd trading as UKPlanningMaps.com a licensed Ordnance Survey partner (100054135).
  0
MTEXT
  5
AAFF1
330
1F
100
AcDbEntity
  8
UKPM - scale and labels
100
AcDbMText
 10
93.36
 20
-5.95
 30
0.0
 40
2.6
 71
     7
 72
     1
  1
Unique plan reference: v1/1416/1734
  0
MTEXT
  5
AAFF2
330
1F
100
AcDbEntity
  8
UKPM - scale and labels
100
AcDbMText
 10
93.36
 20
200.05
 30
0.0
 40
10.4
 71
     7
 72
     1
  1
UKPlanningMaps.com
  0
LWPOLYLINE
  5
AAFF3
330
1F
100
AcDbEntity
  8
UKPM - scale and labels
100
AcDbPolyline
 90
     2
 43
0.0
 10
253.36
 20
68.25
 10
253.36
 20
48.25
  0
LWPOLYLINE
  5
AAFF4
330
1F
100
AcDbEntity
  8
UKPM - scale and labels
100
AcDbPolyline
 90
     2
 43
0.0
 10
253.36
 20
68.25
 10
248.36
 20
63.25
  0
LWPOLYLINE
  5
AAFF5
330
1F
100
AcDbEntity
  8
UKPM - scale and labels
100
AcDbPolyline
 90
     2
 43
0.0
 10
253.36
 20
68.25
 10
258.36
 20
63.25
  0
MTEXT
  5
AAFF6
330
1F
100
AcDbEntity
  8
UKPM - scale and labels
100
AcDbMText
 10
253.36
 20
43.25
 30
0.0
 40
4.0
 71
     5
 72
     1
  1
N
  0
LWPOLYLINE
  5
AAFF7
330
1F
100
AcDbEntity
  8
UKPM - grid
100
AcDbPolyline
 90
     5
 43
0.0
 10
93.36
 20
38.25
 10
93.36
 20
179.25
 10
233.36
 20
179.25
 10
233.36
 20
38.25
 10
93.36
 20
38.25
  0
MTEXT
  5
AAFF8
330
1F
100
AcDbEntity
  8
UKPM - grid
100
AcDbMText
 10
95.36
 20
40.25
 30
0.0
 40
1.0
 71
     7
 72
     1
  1
non-georeferenced map
  0
LWPOLYLINE
  5
AAFF9
330
1F
100
AcDbEntity
  8
UKPM - grid
100
AcDbPolyline
 90
     2
 43
0.0
 10
163.36
 20
58.65
 10
163.36
 20
158.65
  0
LWPOLYLINE
  5
AAFFA
330
1F
100
AcDbEntity
  8
UKPM - grid
100
AcDbPolyline
 90
     2
 43
0.0
 10
213.36
 20
58.65
 10
213.36
 20
158.65
  0
MTEXT
  5
AAFFB
330
1F
100
AcDbEntity
  8
UKPM - grid
100
AcDbMText
 10
113.36
 20
56.65
 30
0.0
 40
2.0
 71
     6
 72
     1
 50
90.0
  1
0m
  0
MTEXT
  5
AAFFC
330
1F
100
AcDbEntity
  8
UKPM - grid
100
AcDbMText
 10
113.36
 20
160.65
 30
0.0
 40
2.0
 71
     4
 72
     1
 50
90.0
  1
0m
  0
MTEXT
  5
AAFFD
330
1F
100
AcDbEntity
  8
UKPM - grid
100
AcDbMText
 10
163.36
 20
56.65
 30
0.0
 40
2.0
 71
     6
 72
     1
 50
90.0
  1
50m
  0
MTEXT
  5
AAFFE
330
1F
100
AcDbEntity
  8
UKPM - grid
100
AcDbMText
 10
163.36
 20
160.65
 30
0.0
 40
2.0
 71
     4
 72
     1
 50
90.0
  1
50m
  0
MTEXT
  5
AAFFF
330
1F
100
AcDbEntity
  8
UKPM - grid
100
AcDbMText
 10
213.36
 20
56.65
 30
0.0
 40
2.0
 71
     6
 72
     1
 50
90.0
  1
100m
  0
MTEXT
  5
AB000
330
1F
100
AcDbEntity
  8
UKPM - grid
100
AcDbMText
 10
213.36
 20
160.65
 30
0.0
 40
2.0
 71
     4
 72
     1
 50
90.0
  1
100m
  0
LWPOLYLINE
  5
AB001
330
1F
100
AcDbEntity
  8
UKPM - grid
100
AcDbPolyline
 90
     2
 43
0.0
 10
113.36
 20
108.65
 10
213.36
 20
108.65
  0
LWPOLYLINE
  5
AB002
330
1F
100
AcDbEntity
  8
UKPM - grid
100
AcDbPolyline
 90
     2
 43
0.0
 10
113.36
 20
158.65
 10
213.36
 20
158.65
  0
MTEXT
  5
AB003
330
1F
100
AcDbEntity
  8
UKPM - grid
100
AcDbMText
 10
111.36
 20
58.65
 30
0.0
 40
2.0
 71
     6
 72
     1
  1
0m
  0
MTEXT
  5
AB004
330
1F
100
AcDbEntity
  8
UKPM - grid
100
AcDbMText
 10
215.36
 20
58.65
 30
0.0
 40
2.0
 71
     4
 72
     1
  1
0m
  0
MTEXT
  5
AB005
330
1F
100
AcDbEntity
  8
UKPM - grid
100
AcDbMText
 10
111.36
 20
108.65
 30
0.0
 40
2.0
 71
     6
 72
     1
  1
50m
  0
MTEXT
  5
AB006
330
1F
100
AcDbEntity
  8
UKPM - grid
100
AcDbMText
 10
215.36
 20
108.65
 30
0.0
 40
2.0
 71
     4
 72
     1
  1
50m
  0
MTEXT
  5
AB007
330
1F
100
AcDbEntity
  8
UKPM - grid
100
AcDbMText
 10
111.36
 20
158.65
 30
0.0
 40
2.0
 71
     6
 72
     1
  1
100m
  0
MTEXT
  5
AB008
330
1F
100
AcDbEntity
  8
UKPM - grid
100
AcDbMText
 10
215.36
 20
158.65
 30
0.0
 40
2.0
 71
     4
 72
     1
  1
100m
  0
ENDSEC
  0
SECTION
  2
OBJECTS
  0
DICTIONARY
  5
C
330
0
100
AcDbDictionary
  3
ACAD_GROUP
350
D
  3
ACAD_LAYOUT
350
1A
  3
ACAD_MLINESTYLE
350
17
  3
ACAD_PLOTSETTINGS
350
19
  3
ACAD_TABLESTYLE
350
2A
  3
ACDBHEADERROUNDTRIPXREC
350
F2F03
  3
ACDBVARIABLEDICTIONARY
350
2C
  0
DICTIONARY
  5
F2F23
330
29
100
AcDbDictionary
280
     1
  3
ACAD_XREC_ROUNDTRIP
360
F2F24
  0
DICTIONARY
  5
D
102
{ACAD_REACTORS
330
C
102
}
330
C
100
AcDbDictionary
  0
DICTIONARY
  5
1A
102
{ACAD_REACTORS
330
C
102
}
330
C
100
AcDbDictionary
  0
DICTIONARY
  5
17
102
{ACAD_REACTORS
330
C
102
}
330
C
100
AcDbDictionary
  3
STANDARD
350
18
  0
DICTIONARY
  5
19
102
{ACAD_REACTORS
330
C
102
}
330
C
100
AcDbDictionary
  0
DICTIONARY
  5
2A
102
{ACAD_REACTORS
330
C
102
}
330
C
100
AcDbDictionary
  3
STANDARD
350
2B
  0
DICTIONARY
  5
F2F03
102
{ACAD_REACTORS
330
C
102
}
330
C
100
AcDbDictionary
  3
CEPSNTYPE
350
F2F0C
  3
DIMSTYLEDATA
350
F2F22
  3
FINGERPRINTGUID
350
F2F0D
  3
HYPERLINKBASE
350
F2F06
  3
INSUNITS
350
F2F0B
  3
LAYOUTDICT
350
F2F08
  3
LWETCUNION
350
F2F0A
  3
PLOTSETDICT
350
F2F09
  3
PSVPSCALE
350
F2F0F
  3
PUCSBASE
350
F2F12
  3
PUCSORGBACK
350
F2F18
  3
PUCSORGBOTTOM
350
F2F14
  3
PUCSORGFRONT
350
F2F17
  3
PUCSORGLEFT
350
F2F15
  3
PUCSORGRIGHT
350
F2F16
  3
PUCSORGTOP
350
F2F13
  3
PUCSORTHOREF
350
F2F10
  3
PUCSORTHOVIEW
350
F2F11
  3
STYLESHEET
350
F2F07
  3
TSTACKALIGN
350
F2F04
  3
TSTACKSIZE
350
F2F05
  3
UCSBASE
350
F2F1B
  3
UCSORGBACK
350
F2F21
  3
UCSORGBOTTOM
350
F2F1D
  3
UCSORGFRONT
350
F2F20
  3
UCSORGLEFT
350
F2F1E
  3
UCSORGRIGHT
350
F2F1F
  3
UCSORGTOP
350
F2F1C
  3
UCSORTHOREF
350
F2F19
  3
UCSORTHOVIEW
350
F2F1A
  3
VERSIONGUID
350
F2F0E
  0
DICTIONARY
  5
2C
102
{ACAD_REACTORS
330
C
102
}
330
C
100
AcDbDictionary
  3
CTABLESTYLE
350
2D
  0
XRECORD
  5
F2F24
102
{ACAD_REACTORS
330
F2F23
102
}
330
F2F23
100
AcDbXrecord
102
UCS
 74
     0
 71
     1
 10
0.0
 20
0.0
 30
0.0
 10
1.0
 20
0.0
 30
0.0
 10
0.0
 20
1.0
 30
0.0
146
0.0
 79
     0
102
VIEW
281
     0
  0
MLINESTYLE
  5
18
102
{ACAD_REACTORS
330
17
102
}
330
17
100
AcDbMlineStyle
  2
Standard
 70
     0
  3

 62
   256
 51
90.0
 52
90.0
 71
     2
 49
0.5
 62
   256
  6
BYLAYER
 49
-0.5
 62
   256
  6
BYLAYER
  0
TABLESTYLE
  5
2B
102
{ACAD_REACTORS
330
2A
102
}
330
2A
100
AcDbTableStyle
  3
Standard
 70
     0
 71
     0
 40
0.06
 41
0.06
280
     0
281
     0
  7
STANDARD
140
0.18
170
     2
 62
     0
 63
     7
283
     0
274
    -2
284
     1
 64
     0
275
    -2
285
     1
 65
     0
276
    -2
286
     1
 66
     0
277
    -2
287
     1
 67
     0
278
    -2
288
     1
 68
     0
279
    -2
289
     1
 69
     0
  7
STANDARD
140
0.25
170
     5
 62
     0
 63
     7
283
     0
274
    -2
284
     1
 64
     0
275
    -2
285
     1
 65
     0
276
    -2
286
     1
 66
     0
277
    -2
287
     1
 67
     0
278
    -2
288
     1
 68
     0
279
    -2
289
     1
 69
     0
  7
STANDARD
140
0.18
170
     5
 62
     0
 63
     7
283
     0
274
    -2
284
     1
 64
     0
275
    -2
285
     1
 65
     0
276
    -2
286
     1
 66
     0
277
    -2
287
     1
 67
     0
278
    -2
288
     1
 68
     0
279
    -2
289
     1
 69
     0
  0
XRECORD
  5
F2F0C
102
{ACAD_REACTORS
330
F2F03
102
}
330
F2F03
100
AcDbXrecord
 90
        0
  0
XRECORD
  5
F2F22
102
{ACAD_REACTORS
330
F2F03
102
}
330
F2F03
100
AcDbXrecord
1000
DSTYLE
1002
{
1070
   340
340
11
1002
}
  0
XRECORD
  5
F2F0D
102
{ACAD_REACTORS
330
F2F03
102
}
330
F2F03
100
AcDbXrecord
  1
{FAEB1C30-E019-11D5-929B-00C0DF256EC4}
  0
XRECORD
  5
F2F06
102
{ACAD_REACTORS
330
F2F03
102
}
330
F2F03
100
AcDbXrecord
  1

  0
XRECORD
  5
F2F0B
102
{ACAD_REACTORS
330
F2F03
102
}
330
F2F03
100
AcDbXrecord
 90
        1
  0
XRECORD
  5
F2F08
102
{ACAD_REACTORS
330
F2F03
102
}
330
F2F03
100
AcDbXrecord
340
1A
  0
XRECORD
  5
F2F0A
102
{ACAD_REACTORS
330
F2F03
102
}
330
F2F03
100
AcDbXrecord
 90
     2560
  0
XRECORD
  5
F2F09
102
{ACAD_REACTORS
330
F2F03
102
}
330
F2F03
100
AcDbXrecord
340
19
  0
XRECORD
  5
F2F0F
102
{ACAD_REACTORS
330
F2F03
102
}
330
F2F03
100
AcDbXrecord
 40
0.0
  0
XRECORD
  5
F2F12
102
{ACAD_REACTORS
330
F2F03
102
}
330
F2F03
100
AcDbXrecord
340
0
  0
XRECORD
  5
F2F18
102
{ACAD_REACTORS
330
F2F03
102
}
330
F2F03
100
AcDbXrecord
 10
0.0
 20
0.0
 30
0.0
  0
XRECORD
  5
F2F14
102
{ACAD_REACTORS
330
F2F03
102
}
330
F2F03
100
AcDbXrecord
 10
0.0
 20
0.0
 30
0.0
  0
XRECORD
  5
F2F17
102
{ACAD_REACTORS
330
F2F03
102
}
330
F2F03
100
AcDbXrecord
 10
0.0
 20
0.0
 30
0.0
  0
XRECORD
  5
F2F15
102
{ACAD_REACTORS
330
F2F03
102
}
330
F2F03
100
AcDbXrecord
 10
0.0
 20
0.0
 30
0.0
  0
XRECORD
  5
F2F16
102
{ACAD_REACTORS
330
F2F03
102
}
330
F2F03
100
AcDbXrecord
 10
0.0
 20
0.0
 30
0.0
  0
XRECORD
  5
F2F13
102
{ACAD_REACTORS
330
F2F03
102
}
330
F2F03
100
AcDbXrecord
 10
0.0
 20
0.0
 30
0.0
  0
XRECORD
  5
F2F10
102
{ACAD_REACTORS
330
F2F03
102
}
330
F2F03
100
AcDbXrecord
340
0
  0
XRECORD
  5
F2F11
102
{ACAD_REACTORS
330
F2F03
102
}
330
F2F03
100
AcDbXrecord
 70
     0
  0
XRECORD
  5
F2F07
102
{ACAD_REACTORS
330
F2F03
102
}
330
F2F03
100
AcDbXrecord
  1

  0
XRECORD
  5
F2F04
102
{ACAD_REACTORS
330
F2F03
102
}
330
F2F03
100
AcDbXrecord
 90
        1
  0
XRECORD
  5
F2F05
102
{ACAD_REACTORS
330
F2F03
102
}
330
F2F03
100
AcDbXrecord
 90
       70
  0
XRECORD
  5
F2F1B
102
{ACAD_REACTORS
330
F2F03
102
}
330
F2F03
100
AcDbXrecord
340
0
  0
XRECORD
  5
F2F21
102
{ACAD_REACTORS
330
F2F03
102
}
330
F2F03
100
AcDbXrecord
 10
0.0
 20
0.0
 30
0.0
  0
XRECORD
  5
F2F1D
102
{ACAD_REACTORS
330
F2F03
102
}
330
F2F03
100
AcDbXrecord
 10
0.0
 20
0.0
 30
0.0
  0
XRECORD
  5
F2F20
102
{ACAD_REACTORS
330
F2F03
102
}
330
F2F03
100
AcDbXrecord
 10
0.0
 20
0.0
 30
0.0
  0
XRECORD
  5
F2F1E
102
{ACAD_REACTORS
330
F2F03
102
}
330
F2F03
100
AcDbXrecord
 10
0.0
 20
0.0
 30
0.0
  0
XRECORD
  5
F2F1F
102
{ACAD_REACTORS
330
F2F03
102
}
330
F2F03
100
AcDbXrecord
 10
0.0
 20
0.0
 30
0.0
  0
XRECORD
  5
F2F1C
102
{ACAD_REACTORS
330
F2F03
102
}
330
F2F03
100
AcDbXrecord
 10
0.0
 20
0.0
 30
0.0
  0
XRECORD
  5
F2F19
102
{ACAD_REACTORS
330
F2F03
102
}
330
F2F03
100
AcDbXrecord
340
0
  0
XRECORD
  5
F2F1A
102
{ACAD_REACTORS
330
F2F03
102
}
330
F2F03
100
AcDbXrecord
 70
     0
  0
XRECORD
  5
F2F0E
102
{ACAD_REACTORS
330
F2F03
102
}
330
F2F03
100
AcDbXrecord
  1
{FAEB1C32-E019-11D5-929B-00C0DF256EC4}
  0
DICTIONARYVAR
  5
2D
102
{ACAD_REACTORS
330
2C
102
}
330
2C
100
DictionaryVariables
280
     0
  1
Standard
  0
ENDSEC
  0
EOF
