  0
SECTION
  2
HEADER
  9
$ACADVER
  1
AC1018
  9
$ACADMAINTVER
 70
   104
  9
$DWGCODEPAGE
  3
ANSI_1252
  9
$LASTSAVEDBY
  1
colinlamond
  9
$INSBASE
 10
0.0
 20
0.0
 30
0.0
  9
$EXTMIN
 10
291127.0
 20
90827.89999999999
 30
0.0
  9
$EXTMAX
 10
291460.6666666636
 20
91051.96666666667
 30
10.0
  9
$LIMMIN
 10
0.0
 20
0.0
  9
$LIMMAX
 10
12.0
 20
9.0
  9
$ORTHOMODE
 70
     0
  9
$REGENMODE
 70
     1
  9
$FILLMODE
 70
     1
  9
$QTEXTMODE
 70
     0
  9
$MIRRTEXT
 70
     1
  9
$LTSCALE
 40
1.0
  9
$ATTMODE
 70
     1
  9
$TEXTSIZE
 40
0.2
  9
$TRACEWID
 40
0.05
  9
$TEXTSTYLE
  7
STANDARD
  9
$CLAYER
  8
0
  9
$CELTYPE
  6
BYLAYER
  9
$CECOLOR
 62
   256
  9
$CELTSCALE
 40
1.0
  9
$DISPSILH
 70
     0
  9
$DIMSCALE
 40
1.0
  9
$DIMASZ
 40
0.18
  9
$DIMEXO
 40
0.0625
  9
$DIMDLI
 40
0.38
  9
$DIMRND
 40
0.0
  9
$DIMDLE
 40
0.0
  9
$DIMEXE
 40
0.18
  9
$DIMTP
 40
0.0
  9
$DIMTM
 40
0.0
  9
$DIMTXT
 40
0.18
  9
$DIMCEN
 40
0.09
  9
$DIMTSZ
 40
0.0
  9
$DIMTOL
 70
     0
  9
$DIMLIM
 70
     0
  9
$DIMTIH
 70
     1
  9
$DIMTOH
 70
     1
  9
$DIMSE1
 70
     0
  9
$DIMSE2
 70
     0
  9
$DIMTAD
 70
     0
  9
$DIMZIN
 70
     0
  9
$DIMBLK
  1

  9
$DIMASO
 70
     1
  9
$DIMSHO
 70
     1
  9
$DIMPOST
  1

  9
$DIMAPOST
  1

  9
$DIMALT
 70
     0
  9
$DIMALTD
 70
     2
  9
$DIMALTF
 40
25.4
  9
$DIMLFAC
 40
1.0
  9
$DIMTOFL
 70
     0
  9
$DIMTVP
 40
0.0
  9
$DIMTIX
 70
     0
  9
$DIMSOXD
 70
     0
  9
$DIMSAH
 70
     0
  9
$DIMBLK1
  1

  9
$DIMBLK2
  1

  9
$DIMSTYLE
  2
STANDARD
  9
$DIMCLRD
 70
     0
  9
$DIMCLRE
 70
     0
  9
$DIMCLRT
 70
     0
  9
$DIMTFAC
 40
1.0
  9
$DIMGAP
 40
0.09
  9
$DIMJUST
 70
     0
  9
$DIMSD1
 70
     0
  9
$DIMSD2
 70
     0
  9
$DIMTOLJ
 70
     1
  9
$DIMTZIN
 70
     0
  9
$DIMALTZ
 70
     0
  9
$DIMALTTZ
 70
     0
  9
$DIMUPT
 70
     0
  9
$DIMDEC
 70
     4
  9
$DIMTDEC
 70
     4
  9
$DIMALTU
 70
     2
  9
$DIMALTTD
 70
     2
  9
$DIMTXSTY
  7
STANDARD
  9
$DIMAUNIT
 70
     0
  9
$DIMADEC
 70
     0
  9
$DIMALTRND
 40
0.0
  9
$DIMAZIN
 70
     0
  9
$DIMDSEP
 70
    46
  9
$DIMATFIT
 70
     3
  9
$DIMFRAC
 70
     0
  9
$DIMLDRBLK
  1

  9
$DIMLUNIT
 70
     2
  9
$DIMLWD
 70
    -2
  9
$DIMLWE
 70
    -2
  9
$DIMTMOVE
 70
     0
  9
$LUNITS
 70
     2
  9
$LUPREC
 70
     4
  9
$SKETCHINC
 40
0.1
  9
$FILLETRAD
 40
0.5
  9
$AUNITS
 70
     0
  9
$AUPREC
 70
     0
  9
$MENU
  1
.
  9
$ELEVATION
 40
0.0
  9
$PELEVATION
 40
0.0
  9
$THICKNESS
 40
0.0
  9
$LIMCHECK
 70
     0
  9
$CHAMFERA
 40
0.5
  9
$CHAMFERB
 40
0.5
  9
$CHAMFERC
 40
1.0
  9
$CHAMFERD
 40
0.0
  9
$SKPOLY
 70
     0
  9
$TDCREATE
 40
2457886.041666667
  9
$TDUCREATE
 40
2457886.000000000
  9
$TDUPDATE
 40
2457886.840881042
  9
$TDUUPDATE
 40
2457886.799214375
  9
$TDINDWG
 40
0.0004492014
  9
$TDUSRTIMER
 40
0.0004448148
  9
$USRTIMER
 70
     1
  9
$ANGBASE
 50
0.0
  9
$ANGDIR
 70
     0
  9
$PDMODE
 70
     0
  9
$PDSIZE
 40
0.0
  9
$PLINEWID
 40
0.0
  9
$SPLFRAME
 70
     0
  9
$SPLINETYPE
 70
     6
  9
$SPLINESEGS
 70
     8
  9
$HANDSEED
  5
F42FF
  9
$SURFTAB1
 70
     6
  9
$SURFTAB2
 70
     6
  9
$SURFTYPE
 70
     6
  9
$SURFU
 70
     6
  9
$SURFV
 70
     6
  9
$UCSBASE
  2

  9
$UCSNAME
  2

  9
$UCSORG
 10
0.0
 20
0.0
 30
0.0
  9
$UCSXDIR
 10
1.0
 20
0.0
 30
0.0
  9
$UCSYDIR
 10
0.0
 20
1.0
 30
0.0
  9
$UCSORTHOREF
  2

  9
$UCSORTHOVIEW
 70
     0
  9
$UCSORGTOP
 10
0.0
 20
0.0
 30
0.0
  9
$UCSORGBOTTOM
 10
0.0
 20
0.0
 30
0.0
  9
$UCSORGLEFT
 10
0.0
 20
0.0
 30
0.0
  9
$UCSORGRIGHT
 10
0.0
 20
0.0
 30
0.0
  9
$UCSORGFRONT
 10
0.0
 20
0.0
 30
0.0
  9
$UCSORGBACK
 10
0.0
 20
0.0
 30
0.0
  9
$PUCSBASE
  2

  9
$PUCSNAME
  2

  9
$PUCSORG
 10
0.0
 20
0.0
 30
0.0
  9
$PUCSXDIR
 10
1.0
 20
0.0
 30
0.0
  9
$PUCSYDIR
 10
0.0
 20
1.0
 30
0.0
  9
$PUCSORTHOREF
  2

  9
$PUCSORTHOVIEW
 70
     0
  9
$PUCSORGTOP
 10
0.0
 20
0.0
 30
0.0
  9
$PUCSORGBOTTOM
 10
0.0
 20
0.0
 30
0.0
  9
$PUCSORGLEFT
 10
0.0
 20
0.0
 30
0.0
  9
$PUCSORGRIGHT
 10
0.0
 20
0.0
 30
0.0
  9
$PUCSORGFRONT
 10
0.0
 20
0.0
 30
0.0
  9
$PUCSORGBACK
 10
0.0
 20
0.0
 30
0.0
  9
$USERI1
 70
     0
  9
$USERI2
 70
     0
  9
$USERI3
 70
     0
  9
$USERI4
 70
     0
  9
$USERI5
 70
     0
  9
$USERR1
 40
0.0
  9
$USERR2
 40
0.0
  9
$USERR3
 40
0.0
  9
$USERR4
 40
0.0
  9
$USERR5
 40
0.0
  9
$WORLDVIEW
 70
     1
  9
$SHADEDGE
 70
     3
  9
$SHADEDIF
 70
    70
  9
$TILEMODE
 70
     1
  9
$MAXACTVP
 70
    64
  9
$PINSBASE
 10
0.0
 20
0.0
 30
0.0
  9
$PLIMCHECK
 70
     0
  9
$PEXTMIN
 10
1.000000000000000E+20
 20
1.000000000000000E+20
 30
1.000000000000000E+20
  9
$PEXTMAX
 10
-1.000000000000000E+20
 20
-1.000000000000000E+20
 30
-1.000000000000000E+20
  9
$PLIMMIN
 10
0.0
 20
0.0
  9
$PLIMMAX
 10
12.0
 20
9.0
  9
$UNITMODE
 70
     0
  9
$VISRETAIN
 70
     1
  9
$PLINEGEN
 70
     0
  9
$PSLTSCALE
 70
     1
  9
$TREEDEPTH
 70
  3020
  9
$CMLSTYLE
  2
STANDARD
  9
$CMLJUST
 70
     0
  9
$CMLSCALE
 40
1.0
  9
$PROXYGRAPHICS
 70
     1
  9
$MEASUREMENT
 70
     0
  9
$CELWEIGHT
370
     0
  9
$ENDCAPS
280
     0
  9
$JOINSTYLE
280
     0
  9
$LWDISPLAY
290
     0
  9
$INSUNITS
 70
     1
  9
$HYPERLINKBASE
  1

  9
$STYLESHEET
  1

  9
$XEDIT
290
     1
  9
$CEPSNTYPE
380
     0
  9
$PSTYLEMODE
290
     0
  9
$FINGERPRINTGUID
  2
{FAEB1C30-E019-11D5-929B-00C0DF256EC4}
  9
$VERSIONGUID
  2
{69008586-D2DF-3C4B-9CC1-1BFEACCEF474}
  9
$EXTNAMES
290
     1
  9
$PSVPSCALE
 40
0.0
  9
$OLESTARTUP
290
     0
  9
$SORTENTS
280
   127
  9
$INDEXCTL
280
     0
  9
$HIDETEXT
280
     0
  9
$XCLIPFRAME
290
     0
  9
$HALOGAP
280
     0
  9
$OBSCOLOR
 70
   257
  9
$OBSLTYPE
280
     0
  9
$INTERSECTIONDISPLAY
280
     0
  9
$INTERSECTIONCOLOR
 70
   257
  9
$DIMASSOC
280
     1
  9
$PROJECTNAME
  1

  0
ENDSEC
  0
SECTION
  2
CLASSES
  0
CLASS
  1
ACDBDICTIONARYWDFLT
  2
AcDbDictionaryWithDefault
  3
ObjectDBX Classes
 90
        0
 91
        1
280
     0
281
     0
  0
CLASS
  1
TABLESTYLE
  2
AcDbTableStyle
  3
ObjectDBX Classes
 90
     4095
 91
        1
280
     0
281
     0
  0
CLASS
  1
DICTIONARYVAR
  2
AcDbDictionaryVar
  3
ObjectDBX Classes
 90
        0
 91
        6
280
     0
281
     0
  0
CLASS
  1
MATERIAL
  2
AcDbMaterial
  3
ObjectDBX Classes
 90
     1153
 91
        3
280
     0
281
     0
  0
CLASS
  1
VISUALSTYLE
  2
AcDbVisualStyle
  3
ObjectDBX Classes
 90
     4095
 91
       24
280
     0
281
     0
  0
CLASS
  1
SCALE
  2
AcDbScale
  3
ObjectDBX Classes
 90
     1153
 91
       17
280
     0
281
     0
  0
CLASS
  1
MLEADERSTYLE
  2
AcDbMLeaderStyle
  3
ACDB_MLEADERSTYLE_CLASS
 90
     4095
 91
        1
280
     0
281
     0
  0
CLASS
  1
ACDBSECTIONVIEWSTYLE
  2
AcDbSectionViewStyle
  3
ObjectDBX Classes
 90
     1025
 91
        1
280
     0
281
     0
  0
CLASS
  1
ACDBDETAILVIEWSTYLE
  2
AcDbDetailViewStyle
  3
ObjectDBX Classes
 90
     1025
 91
        1
280
     0
281
     0
  0
CLASS
  1
CELLSTYLEMAP
  2
AcDbCellStyleMap
  3
ObjectDBX Classes
 90
     1152
 91
        1
280
     0
281
     0
  0
ENDSEC
  0
SECTION
  2
TABLES
  0
TABLE
  2
VPORT
  5
8
330
0
100
AcDbSymbolTable
 70
     1
  0
VPORT
  5
29
330
8
100
AcDbSymbolTableRecord
100
AcDbViewportTableRecord
  2
*ACTIVE
 70
     0
 10
0.0
 20
0.0
 11
1.0
 21
1.0
 12
291278.6821446899
 22
90923.98869076179
 13
0.0
 23
0.0
 14
0.5
 24
0.5
 15
0.5
 25
0.5
 16
0.0
 26
0.0
 36
1.0
 17
0.0
 27
0.0
 37
0.0
 40
302.9875227278099
 41
1.441145281018027
 42
50.0
 43
0.0
 44
0.0
 50
0.0
 51
0.0
 71
     0
 72
   100
 73
     1
 74
     3
 75
     0
 76
     0
 77
     0
 78
     0
281
     0
 65
     1
110
0.0
120
0.0
130
0.0
111
1.0
121
0.0
131
0.0
112
0.0
122
1.0
132
0.0
 79
     0
146
0.0
1001
ACAD_NAV_VCDISPLAY
1070
     3
  0
ENDTAB
  0
TABLE
  2
LTYPE
  5
5
330
0
100
AcDbSymbolTable
 70
     1
  0
LTYPE
  5
14
330
5
100
AcDbSymbolTableRecord
100
AcDbLinetypeTableRecord
  2
BYBLOCK
 70
     0
  3

 72
    65
 73
     0
 40
0.0
  0
LTYPE
  5
15
330
5
100
AcDbSymbolTableRecord
100
AcDbLinetypeTableRecord
  2
BYLAYER
 70
     0
  3

 72
    65
 73
     0
 40
0.0
  0
LTYPE
  5
16
330
5
100
AcDbSymbolTableRecord
100
AcDbLinetypeTableRecord
  2
CONTINUOUS
 70
     0
  3
Solid line
 72
    65
 73
     0
 40
0.0
  0
ENDTAB
  0
TABLE
  2
LAYER
  5
2
102
{ACAD_XDICTIONARY
360
F42AF
102
}
330
0
100
AcDbSymbolTable
 70
    12
  0
LAYER
  5
10
102
{ACAD_XDICTIONARY
360
F4294
102
}
330
2
100
AcDbSymbolTableRecord
100
AcDbLayerTableRecord
  2
0
 70
     0
 62
     7
  6
CONTINUOUS
370
    -3
390
F4243
  0
LAYER
  5
2E
102
{ACAD_XDICTIONARY
360
F4296
102
}
330
2
100
AcDbSymbolTableRecord
100
AcDbLayerTableRecord
  2
UKPM - scale and labels
 70
     0
 62
   252
  6
CONTINUOUS
370
    -3
390
F4243
  0
LAYER
  5
2F
102
{ACAD_XDICTIONARY
360
F4298
102
}
330
2
100
AcDbSymbolTableRecord
100
AcDbLayerTableRecord
  2
UKPM - grid
 70
     0
 62
   252
  6
CONTINUOUS
370
    -3
390
F4243
  0
LAYER
  5
30
102
{ACAD_XDICTIONARY
360
F429A
102
}
330
2
100
AcDbSymbolTableRecord
100
AcDbLayerTableRecord
  2
Line - General Feature
 70
     0
 62
     0
  6
CONTINUOUS
370
    -3
390
F4243
  0
LAYER
  5
31
102
{ACAD_XDICTIONARY
360
F429C
102
}
330
2
100
AcDbSymbolTableRecord
100
AcDbLayerTableRecord
  2
Line - Building - Division
 70
     0
 62
    30
  6
CONTINUOUS
370
    -3
390
F4243
  0
LAYER
  5
32
102
{ACAD_XDICTIONARY
360
F429E
102
}
330
2
100
AcDbSymbolTableRecord
100
AcDbLayerTableRecord
  2
Line - Road Or Track - Public
 70
     0
 62
   250
  6
CONTINUOUS
370
    -3
390
F4243
  0
LAYER
  5
33
102
{ACAD_XDICTIONARY
360
F42A0
102
}
330
2
100
AcDbSymbolTableRecord
100
AcDbLayerTableRecord
  2
Line - Network Or Polygon Closing Geometry - Inferred Property Closing Link
 70
     0
 62
     0
  6
CONTINUOUS
370
    -3
390
F4243
  0
LAYER
  5
34
102
{ACAD_XDICTIONARY
360
F42A2
102
}
330
2
100
AcDbSymbolTableRecord
100
AcDbLayerTableRecord
  2
Contour - ordinary
 70
     0
 62
    71
  6
CONTINUOUS
370
    -3
390
F4243
  0
LAYER
  5
35
102
{ACAD_XDICTIONARY
360
F42A4
102
}
330
2
100
AcDbSymbolTableRecord
100
AcDbLayerTableRecord
  2
Text - Road Or Track - Road Name Or Classification
 70
     0
 62
   250
  6
CONTINUOUS
370
    -3
390
F4243
  0
LAYER
  5
36
102
{ACAD_XDICTIONARY
360
F42A6
102
}
330
2
100
AcDbSymbolTableRecord
100
AcDbLayerTableRecord
  2
Line - Building - Outline
 70
     0
 62
    30
  6
CONTINUOUS
370
    -3
390
F4243
  0
LAYER
  5
37
102
{ACAD_XDICTIONARY
360
F42A8
102
}
330
2
100
AcDbSymbolTableRecord
100
AcDbLayerTableRecord
  2
Text - Buildings Or Structure
 70
     0
 62
    30
  6
CONTINUOUS
370
    -3
390
F4243
  0
LAYER
  5
38
102
{ACAD_XDICTIONARY
360
F42AA
102
}
330
2
100
AcDbSymbolTableRecord
100
AcDbLayerTableRecord
  2
Line - Network Or Polygon Closing Geometry - Polygon Closing Link
 70
     0
 62
     0
  6
CONTINUOUS
370
    -3
390
F4243
  0
ENDTAB
  0
TABLE
  2
STYLE
  5
3
330
0
100
AcDbSymbolTable
 70
     1
  0
STYLE
  5
11
330
3
100
AcDbSymbolTableRecord
100
AcDbTextStyleTableRecord
  2
STANDARD
 70
     0
 40
0.0
 41
1.0
 50
0.0
 71
     0
 42
0.2
  3
txt
  4

  0
ENDTAB
  0
TABLE
  2
VIEW
  5
6
330
0
100
AcDbSymbolTable
 70
     1
  0
ENDTAB
  0
TABLE
  2
UCS
  5
7
330
0
100
AcDbSymbolTable
 70
     0
  0
ENDTAB
  0
TABLE
  2
APPID
  5
9
330
0
100
AcDbSymbolTable
 70
     3
  0
APPID
  5
12
330
9
100
AcDbSymbolTableRecord
100
AcDbRegAppTableRecord
  2
ACAD
 70
     0
  0
APPID
  5
F42BA
330
9
100
AcDbSymbolTableRecord
100
AcDbRegAppTableRecord
  2
ACAD_NAV_VCDISPLAY
 70
     0
  0
APPID
  5
F42FA
330
9
100
AcDbSymbolTableRecord
100
AcDbRegAppTableRecord
  2
ACAD_MLEADERVER
 70
     0
  0
ENDTAB
  0
TABLE
  2
DIMSTYLE
  5
A
330
0
100
AcDbSymbolTable
 70
     1
100
AcDbDimStyleTable
 71
     0
  0
DIMSTYLE
105
27
330
A
100
AcDbSymbolTableRecord
100
AcDbDimStyleTableRecord
  2
STANDARD
 70
     0
340
11
  0
ENDTAB
  0
TABLE
  2
BLOCK_RECORD
  5
1
330
0
100
AcDbSymbolTable
 70
     0
  0
BLOCK_RECORD
  5
1F
330
1
100
AcDbSymbolTableRecord
100
AcDbBlockTableRecord
  2
*MODEL_SPACE
340
F428F
  0
BLOCK_RECORD
  5
1B
330
1
100
AcDbSymbolTableRecord
100
AcDbBlockTableRecord
  2
*PAPER_SPACE
340
F4290
  0
ENDTAB
  0
ENDSEC
  0
SECTION
  2
BLOCKS
  0
BLOCK
  5
20
330
1F
100
AcDbEntity
  8
0
100
AcDbBlockBegin
  2
*MODEL_SPACE
 70
     0
 10
0.0
 20
0.0
 30
0.0
  3
*MODEL_SPACE
  1

  0
ENDBLK
  5
21
330
1F
100
AcDbEntity
  8
0
100
AcDbBlockEnd
  0
BLOCK
  5
1C
330
1B
100
AcDbEntity
 67
     1
  8
0
100
AcDbBlockBegin
  2
*PAPER_SPACE
 70
     0
 10
0.0
 20
0.0
 30
0.0
  3
*PAPER_SPACE
  1

  0
ENDBLK
  5
1D
330
1B
100
AcDbEntity
 67
     1
  8
0
100
AcDbBlockEnd
  0
ENDSEC
  0
SECTION
  2
ENTITIES
  0
MTEXT
  5
AAE60
330
1F
100
AcDbEntity
  8
Text - Buildings Or Structure
100
AcDbMText
 10
291230.05
 20
90903.05
 30
0.0
 40
1.5
 41
0.0
 71
     8
 72
     1
  1
98
 11
0.7058715706786812
 21
0.7083398377245289
 31
0.0
 73
     1
 44
1.0
  0
MTEXT
  5
AAE61
330
1F
100
AcDbEntity
  8
Text - Buildings Or Structure
100
AcDbMText
 10
291206.8
 20
90973.5
 30
0.0
 40
1.5
 41
0.0
 71
     8
 72
     1
  1
5
 11
0.8171448983351284
 21
0.5764323161697933
 31
0.0
 73
     1
 44
1.0
  0
MTEXT
  5
AAE62
330
1F
100
AcDbEntity
  8
Text - Buildings Or Structure
100
AcDbMText
 10
291205.45
 20
90922.4
 30
0.0
 40
1.5
 41
0.0
 71
     8
 72
     1
  1
2
 11
0.7021530529951625
 21
-0.7120260459909965
 31
0.0
 73
     1
 44
1.0
  0
MTEXT
  5
AAE63
330
1F
100
AcDbEntity
  8
Text - Buildings Or Structure
100
AcDbMText
 10
291235.35
 20
90994.74999999999
 30
0.0
 40
1.5
 41
0.0
 71
     8
 72
     1
  1
101
 11
-0.4771587602596085
 21
0.8788171126619653
 31
0.0
 73
     1
 44
1.0
  0
MTEXT
  5
AAE64
330
1F
100
AcDbEntity
  8
Text - Road Or Track - Road Name Or Classification
100
AcDbMText
 10
291186.1
 20
90923.7
 30
0.0
 40
1.5
 41
0.0
 71
     5
 72
     1
  1
SHELLEY CLOSE
 11
0.6730125135097734
 21
-0.7396310949786097
 31
0.0
 73
     1
 44
1.0
  0
MTEXT
  5
AAE65
330
1F
100
AcDbEntity
  8
Text - Buildings Or Structure
100
AcDbMText
 10
291226.5
 20
90951.4
 30
0.0
 40
1.5
 41
0.0
 71
     8
 72
     1
  1
6
 11
-0.5891963573533423
 21
-0.8079898838980305
 31
0.0
 73
     1
 44
1.0
  0
MTEXT
  5
AAE66
330
1F
100
AcDbEntity
  8
Text - Buildings Or Structure
100
AcDbMText
 10
291207.4500000001
 20
90928.69999999999
 30
0.0
 40
1.5
 41
0.0
 71
     8
 72
     1
  1
10
 11
-0.7120260459909967
 21
-0.7021530529951623
 31
0.0
 73
     1
 44
1.0
  0
MTEXT
  5
AAE67
330
1F
100
AcDbEntity
  8
Text - Buildings Or Structure
100
AcDbMText
 10
291160.85
 20
90929.9
 30
0.0
 40
1.5
 41
0.0
 71
     8
 72
     1
  1
15
 11
-0.6320293026648506
 21
0.7749444887041801
 31
0.0
 73
     1
 44
1.0
  0
MTEXT
  5
AAE68
330
1F
100
AcDbEntity
  8
Text - Road Or Track - Road Name Or Classification
100
AcDbMText
 10
291199.35
 20
90944.8
 30
0.0
 40
1.5
 41
0.0
 71
     5
 72
     1
  1
REXONA CLOSE
 11
0.7349145951499599
 21
0.6781596698680707
 31
0.0
 73
     1
 44
1.0
  0
MTEXT
  5
AAE69
330
1F
100
AcDbEntity
  8
Text - Buildings Or Structure
100
AcDbMText
 10
291175.65
 20
90948.89999999999
 30
0.0
 40
1.5
 41
0.0
 71
     8
 72
     1
  1
4
 11
0.63338087262755
 21
-0.7738402097265064
 31
0.0
 73
     1
 44
1.0
  0
MTEXT
  5
AAE6A
330
1F
100
AcDbEntity
  8
Text - Buildings Or Structure
100
AcDbMText
 10
291164.35
 20
90996.05
 30
0.0
 40
1.5
 41
0.0
 71
     8
 72
     1
  1
73
 11
0.6454576877239503
 21
-0.7637960286346425
 31
0.0
 73
     1
 44
1.0
  0
MTEXT
  5
AAE6B
330
1F
100
AcDbEntity
  8
Text - Buildings Or Structure
100
AcDbMText
 10
291245.15
 20
90976.75
 30
0.0
 40
1.5
 41
0.0
 71
     8
 72
     1
  1
93
 11
-0.4786918579406069
 21
0.8779829754279807
 31
0.0
 73
     1
 44
1.0
  0
MTEXT
  5
AAE6C
330
1F
100
AcDbEntity
  8
Text - Buildings Or Structure
100
AcDbMText
 10
291184.05
 20
90952.19999999999
 30
0.0
 40
1.5
 41
0.0
 71
     8
 72
     1
  1
1
 11
0.759271307334881
 21
0.650774217265851
 31
0.0
 73
     1
 44
1.0
  0
LWPOLYLINE
  5
AAE6D
330
1F
100
AcDbEntity
  8
Line - General Feature
100
AcDbPolyline
 90
        2
 70
     0
 43
0.0
 10
291151.67
 20
90945.52999999999
 10
291159.25
 20
90950.45
  0
LWPOLYLINE
  5
AAE6E
330
1F
100
AcDbEntity
  8
Line - General Feature
100
AcDbPolyline
 90
        2
 70
     0
 43
0.0
 10
291147.0
 20
90959.8917191
 10
291149.0800000001
 20
90960.78999999999
  0
LWPOLYLINE
  5
AAE6F
330
1F
100
AcDbEntity
  8
Line - General Feature
100
AcDbPolyline
 90
        3
 70
     0
 43
0.0
 10
291147.0
 20
90964.29210530001
 10
291148.35
 20
90961.0
 10
291149.0800000001
 20
90960.78999999999
  0
LWPOLYLINE
  5
AAE70
330
1F
100
AcDbEntity
  8
Line - Building - Outline
100
AcDbPolyline
 90
        7
 70
     0
 43
0.0
 10
291194.57
 20
90961.03000000001
 10
291198.2
 20
90964.1
 10
291195.382
 20
90967.33900000002
 10
291192.5
 20
90970.65
 10
291190.9960000001
 20
90969.37099999999
 10
291189.31
 20
90971.35300000001
 10
291187.061
 20
90969.44
  0
LWPOLYLINE
  5
AAE71
330
1F
100
AcDbEntity
  8
Line - Building - Outline
100
AcDbPolyline
 90
       14
 70
     0
 43
0.0
 10
291166.43
 20
90977.77
 10
291161.586
 20
90984.94
 10
291166.458
 20
90988.29699999999
 10
291166.885
 20
90987.67699999999
 10
291169.303
 20
90989.34300000001
 10
291170.168
 20
90989.92
 10
291172.062
 20
90987.082
 10
291173.233
 20
90987.86399999999
 10
291175.6140000001
 20
90989.453
 10
291176.5130000001
 20
90988.10699999999
 10
291177.775
 20
90987.85600000001
 10
291178.376
 20
90986.95800000001
 10
291178.187
 20
90985.59800000002
 10
291177.9000000001
 20
90985.40600000001
  0
LWPOLYLINE
  5
AAE72
330
1F
100
AcDbEntity
  8
Line - General Feature
100
AcDbPolyline
 90
        2
 70
     0
 43
0.0
 10
291182.234
 20
90962.47099999999
 10
291183.7800000001
 20
90960.72000000001
  0
LWPOLYLINE
  5
AAE73
330
1F
100
AcDbEntity
  8
Line - General Feature
100
AcDbPolyline
 90
        2
 70
     0
 43
0.0
 10
291220.05
 20
90993.05000000001
 10
291227.2
 20
90996.75000000001
  0
LWPOLYLINE
  5
AAE74
330
1F
100
AcDbEntity
  8
Line - Building - Outline
100
AcDbPolyline
 90
        2
 70
     0
 43
0.0
 10
291176.57
 20
90978.50000000001
 10
291178.408
 20
90975.72500000001
  0
LWPOLYLINE
  5
AAE75
330
1F
100
AcDbEntity
  8
Line - General Feature
100
AcDbPolyline
 90
        2
 70
     0
 43
0.0
 10
291202.285
 20
90940.56100000001
 10
291206.741
 20
90936.36700000001
  0
LWPOLYLINE
  5
AAE76
330
1F
100
AcDbEntity
  8
Line - General Feature
100
AcDbPolyline
 90
        3
 70
     0
 43
0.0
 10
291155.4
 20
90956.7
 10
291157.1
 20
90954.2
 10
291159.25
 20
90950.45
  0
LWPOLYLINE
  5
AAE77
330
1F
100
AcDbEntity
  8
Line - General Feature
100
AcDbPolyline
 90
        3
 70
     0
 43
0.0
 10
291195.37
 20
90947.54
 10
291200.0
 20
90951.55
 10
291201.5100000001
 20
90952.94
  0
LWPOLYLINE
  5
AAE78
330
1F
100
AcDbEntity
  8
Line - Building - Outline
100
AcDbPolyline
 90
        2
 70
     0
 43
0.0
 10
291178.083
 20
90967.17199999998
 10
291182.234
 20
90962.47099999999
  0
LWPOLYLINE
  5
AAE79
330
1F
100
AcDbEntity
  8
Line - Building - Outline
100
AcDbPolyline
 90
        7
 70
     0
 43
0.0
 10
291183.23
 20
90949.57
 10
291186.85
 20
90952.5
 10
291184.6890000001
 20
90955.145
 10
291181.5
 20
90959.05
 10
291179.952
 20
90957.775
 10
291178.343
 20
90959.73
 10
291176.2
 20
90957.965
  0
LWPOLYLINE
  5
AAE7A
330
1F
100
AcDbEntity
  8
Line - General Feature
100
AcDbPolyline
 90
        2
 70
     0
 43
0.0
 10
291214.97
 20
90992.61999999999
 10
291212.9000000001
 20
90991.54
  0
LWPOLYLINE
  5
AAE7B
330
1F
100
AcDbEntity
  8
Line - General Feature
100
AcDbPolyline
 90
        2
 70
     0
 43
0.0
 10
291221.16
 20
90986.66000000001
 10
291222.08
 20
90984.91
  0
LWPOLYLINE
  5
AAE7C
330
1F
100
AcDbEntity
  8
Line - General Feature
100
AcDbPolyline
 90
        5
 70
     0
 43
0.0
 10
291219.2000000001
 20
90965.74999999999
 10
291214.75
 20
90961.64999999999
 10
291216.85
 20
90959.4
 10
291221.3
 20
90963.50000000001
 10
291219.2000000001
 20
90965.74999999999
  0
LWPOLYLINE
  5
AAE7D
330
1F
100
AcDbEntity
  8
Line - General Feature
100
AcDbPolyline
 90
        4
 70
     0
 43
0.0
 10
291214.97
 20
90949.12
 10
291213.25
 20
90947.39999999999
 10
291208.0
 20
90947.2
 10
291207.11
 20
90946.4
  0
LWPOLYLINE
  5
AAE7E
330
1F
100
AcDbEntity
  8
Line - General Feature
100
AcDbPolyline
 90
        2
 70
     0
 43
0.0
 10
291216.97
 20
90993.61999999999
 10
291214.97
 20
90992.61999999999
  0
LWPOLYLINE
  5
AAE7F
330
1F
100
AcDbEntity
  8
Line - General Feature
100
AcDbPolyline
 90
        2
 70
     0
 43
0.0
 10
291220.2
 20
90988.5
 10
291219.2000000001
 20
90989.25000000001
  0
LWPOLYLINE
  5
AAE80
330
1F
100
AcDbEntity
  8
Line - Network Or Polygon Closing Geometry - Polygon Closing Link
100
AcDbPolyline
 90
        2
 70
     0
 43
0.0
 10
291160.56
 20
90988.28000000001
 10
291161.55
 20
90986.79999999999
  0
LWPOLYLINE
  5
AAE81
330
1F
100
AcDbEntity
  8
Line - General Feature
100
AcDbPolyline
 90
        3
 70
     0
 43
0.0
 10
291222.92
 20
90983.30999999999
 10
291223.6
 20
90982.0
 10
291221.7
 20
90981.0
  0
LWPOLYLINE
  5
AAE82
330
1F
100
AcDbEntity
  8
Line - General Feature
100
AcDbPolyline
 90
        2
 70
     0
 43
0.0
 10
291217.31
 20
90988.28000000001
 10
291219.2000000001
 20
90989.25000000001
  0
LWPOLYLINE
  5
AAE83
330
1F
100
AcDbEntity
  8
Line - General Feature
100
AcDbPolyline
 90
        4
 70
     0
 43
0.0
 10
291192.72
 20
90997.21999999999
 10
291200.0
 20
90989.35
 10
291203.6500000001
 20
90985.35000000001
 10
291206.242
 20
90982.573
  0
LWPOLYLINE
  5
AAE84
330
1F
100
AcDbEntity
  8
Line - Building - Division
100
AcDbPolyline
 90
        2
 70
     0
 43
0.0
 10
291153.62
 20
90927.52
 10
291160.23
 20
90932.96999999999
  0
LWPOLYLINE
  5
AAE85
330
1F
100
AcDbEntity
  8
Line - General Feature
100
AcDbPolyline
 90
        2
 70
     0
 43
0.0
 10
291202.1500000001
 20
90902.50000000001
 10
291204.2100000001
 20
90900.66
  0
LWPOLYLINE
  5
AAE86
330
1F
100
AcDbEntity
  8
Line - General Feature
100
AcDbPolyline
 90
        2
 70
     0
 43
0.0
 10
291240.05
 20
90899.25
 10
291238.1342105
 20
90897.30000000001
  0
LWPOLYLINE
  5
AAE87
330
1F
100
AcDbEntity
  8
Line - General Feature
100
AcDbPolyline
 90
        5
 70
     0
 43
0.0
 10
291223.7136364
 20
90897.30000000001
 10
291223.1500000001
 20
90897.80000000001
 10
291220.5
 20
90900.0
 10
291215.3
 20
90904.1
 10
291211.148
 20
90907.33300000001
  0
LWPOLYLINE
  5
AAE88
330
1F
100
AcDbEntity
  8
Line - General Feature
100
AcDbPolyline
 90
        6
 70
     0
 43
0.0
 10
291211.148
 20
90907.33300000001
 10
291209.2
 20
90908.85000000001
 10
291200.1
 20
90916.75
 10
291194.1500000001
 20
90921.75000000001
 10
291193.9
 20
90934.15
 10
291196.15
 20
90936.28999999999
  0
LWPOLYLINE
  5
AAE89
330
1F
100
AcDbEntity
  8
Line - Building - Outline
100
AcDbPolyline
 90
        5
 70
     0
 43
0.0
 10
291233.599
 20
90905.56599999999
 10
291232.728
 20
90904.647
 10
291233.2000000001
 20
90904.19999999999
 10
291228.95
 20
90899.9
 10
291226.4416496
 20
90897.30000000001
  0
LWPOLYLINE
  5
AAE8A
330
1F
100
AcDbEntity
  8
Line - Building - Outline
100
AcDbPolyline
 90
        7
 70
     0
 43
0.0
 10
291225.7972162001
 20
90897.30000000001
 10
291219.956
 20
90902.93499999999
 10
291222.775
 20
90905.857
 10
291220.4500000001
 20
90908.10000000001
 10
291224.6500000001
 20
90912.30000000001
 10
291226.782
 20
90910.27999999999
 10
291227.748
 20
90911.299
  0
LWPOLYLINE
  5
AAE8B
330
1F
100
AcDbEntity
  8
Line - Building - Outline
100
AcDbPolyline
 90
        2
 70
     0
 43
0.0
 10
291225.4000000001
 20
90913.60000000001
 10
291227.748
 20
90911.299
  0
LWPOLYLINE
  5
AAE8C
330
1F
100
AcDbEntity
  8
Line - Building - Outline
100
AcDbPolyline
 90
        4
 70
     0
 43
0.0
 10
291153.35
 20
90917.0
 10
291155.168
 20
90914.89599999999
 10
291159.218
 20
90918.396
 10
291157.4
 20
90920.5
  0
LWPOLYLINE
  5
AAE8D
330
1F
100
AcDbEntity
  8
Line - Building - Outline
100
AcDbPolyline
 90
        5
 70
     0
 43
0.0
 10
291230.45
 20
90912.35000000001
 10
291231.668
 20
90913.61
 10
291230.605
 20
90914.63699999998
 10
291232.831
 20
90916.94099999999
 10
291232.839
 20
90916.94900000002
  0
LWPOLYLINE
  5
AAE8E
330
1F
100
AcDbEntity
  8
Line - Building - Division
100
AcDbPolyline
 90
        2
 70
     0
 43
0.0
 10
291232.839
 20
90916.94900000002
 10
291233.91
 20
90915.92999999999
  0
LWPOLYLINE
  5
AAE8F
330
1F
100
AcDbEntity
  8
Line - General Feature
100
AcDbPolyline
 90
        2
 70
     0
 43
0.0
 10
291147.0
 20
90932.86985109999
 10
291147.08
 20
90932.92999999999
  0
LWPOLYLINE
  5
AAE90
330
1F
100
AcDbEntity
  8
Line - Building - Outline
100
AcDbPolyline
 90
        4
 70
     0
 43
0.0
 10
291153.62
 20
90927.52
 10
291150.55
 20
90931.25
 10
291157.1500000001
 20
90936.69999999999
 10
291160.23
 20
90932.96999999999
  0
LWPOLYLINE
  5
AAE91
330
1F
100
AcDbEntity
  8
Line - General Feature
100
AcDbPolyline
 90
        3
 70
     0
 43
0.0
 10
291147.08
 20
90932.92999999999
 10
291149.15
 20
90930.2
 10
291147.0
 20
90928.57807020001
  0
LWPOLYLINE
  5
AAE92
330
1F
100
AcDbEntity
  8
Line - Building - Outline
100
AcDbPolyline
 90
        2
 70
     0
 43
0.0
 10
291147.0
 20
90921.95435050001
 10
291149.687
 20
90924.21300000001
  0
LWPOLYLINE
  5
AAE93
330
1F
100
AcDbEntity
  8
Line - Network Or Polygon Closing Geometry - Inferred Property Closing Link
100
AcDbPolyline
 90
        2
 70
     0
 43
0.0
 10
291196.15
 20
90936.28999999999
 10
291204.63
 20
90927.98
  0
LWPOLYLINE
  5
AAE94
330
1F
100
AcDbEntity
  8
Line - Building - Outline
100
AcDbPolyline
 90
        2
 70
     0
 43
0.0
 10
291147.08
 20
90932.92999999999
 10
291147.0
 20
90933.03510639998
  0
LWPOLYLINE
  5
AAE95
330
1F
100
AcDbEntity
  8
Line - Building - Outline
100
AcDbPolyline
 90
        7
 70
     0
 43
0.0
 10
291212.542
 20
90919.906
 10
291212.5510000001
 20
90919.916
 10
291214.838
 20
90922.18400000001
 10
291213.039
 20
90923.99900000001
 10
291214.2000000001
 20
90925.15
 10
291208.05
 20
90931.35
 10
291204.63
 20
90927.98
  0
LWPOLYLINE
  5
AAE96
330
1F
100
AcDbEntity
  8
Line - General Feature
100
AcDbPolyline
 90
        2
 70
     0
 43
0.0
 10
291220.87
 20
90918.03
 10
291218.55
 20
90915.44999999999
  0
LWPOLYLINE
  5
AAE97
330
1F
100
AcDbEntity
  8
Line - General Feature
100
AcDbPolyline
 90
        4
 70
     0
 43
0.0
 10
291167.56
 20
90909.25999999999
 10
291165.8
 20
90911.35000000001
 10
291161.8
 20
90907.94999999999
 10
291163.56
 20
90905.86
  0
LWPOLYLINE
  5
AAE98
330
1F
100
AcDbEntity
  8
Line - General Feature
100
AcDbPolyline
 90
        2
 70
     0
 43
0.0
 10
291176.75
 20
90927.05
 10
291170.64
 20
90921.85
  0
LWPOLYLINE
  5
AAE99
330
1F
100
AcDbEntity
  8
Line - General Feature
100
AcDbPolyline
 90
        2
 70
     0
 43
0.0
 10
291181.5800000001
 20
90910.79
 10
291187.4500000001
 20
90915.7
  0
LWPOLYLINE
  5
AAE9A
330
1F
100
AcDbEntity
  8
Line - Building - Outline
100
AcDbPolyline
 90
        4
 70
     0
 43
0.0
 10
291170.64
 20
90921.85
 10
291167.6
 20
90925.44999999999
 10
291161.4000000001
 20
90920.14999999999
 10
291164.41
 20
90916.6
  0
LWPOLYLINE
  5
AAE9B
330
1F
100
AcDbEntity
  8
Line - Building - Division
100
AcDbPolyline
 90
        2
 70
     0
 43
0.0
 10
291189.0146341
 20
90897.30000000001
 10
291192.3900000001
 20
90900.03000000001
  0
LWPOLYLINE
  5
AAE9C
330
1F
100
AcDbEntity
  8
Line - Building - Outline
100
AcDbPolyline
 90
        2
 70
     0
 43
0.0
 10
291151.45
 20
90915.35
 10
291153.35
 20
90917.0
  0
LWPOLYLINE
  5
AAE9D
330
1F
100
AcDbEntity
  8
Line - Building - Outline
100
AcDbPolyline
 90
        7
 70
     0
 43
0.0
 10
291149.1
 20
90903.30000000001
 10
291148.672
 20
90903.74900000002
 10
291148.684
 20
90903.75999999999
 10
291150.678
 20
90905.56599999999
 10
291147.2970000001
 20
90909.32199999999
 10
291148.6
 20
90910.44999999999
 10
291147.0
 20
90912.47352939998
  0
LWPOLYLINE
  5
AAE9E
330
1F
100
AcDbEntity
  8
Line - Building - Outline
100
AcDbPolyline
 90
        2
 70
     0
 43
0.0
 10
291149.1
 20
90903.30000000001
 10
291151.662
 20
90905.532
  0
LWPOLYLINE
  5
AAE9F
330
1F
100
AcDbEntity
  8
Line - Building - Outline
100
AcDbPolyline
 90
        3
 70
     0
 43
0.0
 10
291230.45
 20
90912.35000000001
 10
291236.8
 20
90906.25000000001
 10
291240.28
 20
90909.86
  0
LWPOLYLINE
  5
AAEA0
330
1F
100
AcDbEntity
  8
Line - General Feature
100
AcDbPolyline
 90
        2
 70
     0
 43
0.0
 10
291233.599
 20
90905.56599999999
 10
291235.3
 20
90903.89999999999
  0
LWPOLYLINE
  5
AAEA1
330
1F
100
AcDbEntity
  8
Line - Building - Outline
100
AcDbPolyline
 90
        2
 70
     0
 43
0.0
 10
291173.29
 20
90910.2
 10
291171.3
 20
90912.5
  0
LWPOLYLINE
  5
AAEA2
330
1F
100
AcDbEntity
  8
Line - Building - Division
100
AcDbPolyline
 90
        2
 70
     0
 43
0.0
 10
291157.4
 20
90920.5
 10
291153.35
 20
90917.0
  0
LWPOLYLINE
  5
AAEA3
330
1F
100
AcDbEntity
  8
Line - Building - Division
100
AcDbPolyline
 90
        2
 70
     0
 43
0.0
 10
291163.56
 20
90905.86
 10
291167.56
 20
90909.25999999999
  0
LWPOLYLINE
  5
AAEA4
330
1F
100
AcDbEntity
  8
Line - General Feature
100
AcDbPolyline
 90
        2
 70
     0
 43
0.0
 10
291151.662
 20
90905.532
 10
291156.31
 20
90909.58
  0
LWPOLYLINE
  5
AAEA5
330
1F
100
AcDbEntity
  8
Line - Building - Outline
100
AcDbPolyline
 90
        2
 70
     0
 43
0.0
 10
291228.614
 20
90910.451
 10
291233.599
 20
90905.56599999999
  0
LWPOLYLINE
  5
AAEA6
330
1F
100
AcDbEntity
  8
Line - Building - Division
100
AcDbPolyline
 90
        2
 70
     0
 43
0.0
 10
291210.75
 20
90921.73
 10
291212.542
 20
90919.906
  0
LWPOLYLINE
  5
AAEA7
330
1F
100
AcDbEntity
  8
Line - Building - Outline
100
AcDbPolyline
 90
        3
 70
     0
 43
0.0
 10
291215.94
 20
90916.44999999999
 10
291216.75
 20
90917.35000000001
 10
291218.55
 20
90915.44999999999
  0
LWPOLYLINE
  5
AAEA8
330
1F
100
AcDbEntity
  8
Line - General Feature
100
AcDbPolyline
 90
        3
 70
     0
 43
0.0
 10
291181.65
 20
90921.3
 10
291182.5
 20
90920.19999999999
 10
291187.4500000001
 20
90915.7
  0
LWPOLYLINE
  5
AAEA9
330
1F
100
AcDbEntity
  8
Line - General Feature
100
AcDbPolyline
 90
        3
 70
     0
 43
0.0
 10
291245.56
 20
90904.84
 10
291240.8
 20
90900.0
 10
291240.05
 20
90899.25
  0
LWPOLYLINE
  5
AAEAA
330
1F
100
AcDbEntity
  8
Line - General Feature
100
AcDbPolyline
 90
        2
 70
     0
 43
0.0
 10
291161.1500000001
 20
90903.74999999999
 10
291161.75
 20
90903.05
  0
LWPOLYLINE
  5
AAEAB
330
1F
100
AcDbEntity
  8
Line - Building - Division
100
AcDbPolyline
 90
        2
 70
     0
 43
0.0
 10
291204.63
 20
90927.98
 10
291210.75
 20
90921.73
  0
LWPOLYLINE
  5
AAEAC
330
1F
100
AcDbEntity
  8
Line - Road Or Track - Public
100
AcDbPolyline
 90
       24
 70
     0
 43
0.0
 10
291189.7
 20
90929.4
 10
291189.55
 20
90928.19999999999
 10
291189.55
 20
90926.55
 10
291189.6
 20
90926.1
 10
291189.7
 20
90925.39999999999
 10
291189.75
 20
90924.94999999999
 10
291189.9
 20
90924.55000000001
 10
291190.1
 20
90923.75
 10
291190.5
 20
90922.85
 10
291190.65
 20
90922.49999999999
 10
291190.8
 20
90922.19999999999
 10
291191.3
 20
90921.4
 10
291191.45
 20
90921.19999999999
 10
291191.65
 20
90920.95
 10
291192.0
 20
90920.55
 10
291192.4500000001
 20
90920.14999999999
 10
291192.7
 20
90919.89999999999
 10
291192.95
 20
90919.69999999999
 10
291207.85
 20
90906.69999999999
 10
291213.95
 20
90902.3
 10
291217.4
 20
90900.0
 10
291218.7
 20
90898.75000000001
 10
291220.05
 20
90897.5
 10
291220.275
 20
90897.30000000001
  0
LWPOLYLINE
  5
AAEAD
330
1F
100
AcDbEntity
  8
Line - General Feature
100
AcDbPolyline
 90
        2
 70
     0
 43
0.0
 10
291157.86
 20
90899.54
 10
291155.262982
 20
90897.30000000001
  0
LWPOLYLINE
  5
AAEAE
330
1F
100
AcDbEntity
  8
Line - General Feature
100
AcDbPolyline
 90
        2
 70
     0
 43
0.0
 10
291200.8864425
 20
90897.30000000001
 10
291204.2100000001
 20
90900.66
  0
LWPOLYLINE
  5
AAEAF
330
1F
100
AcDbEntity
  8
Line - Building - Outline
100
AcDbPolyline
 90
        2
 70
     0
 43
0.0
 10
291151.64
 20
90897.71
 10
291151.1685000001
 20
90897.30000000001
  0
LWPOLYLINE
  5
AAEB0
330
1F
100
AcDbEntity
  8
Line - General Feature
100
AcDbPolyline
 90
        2
 70
     0
 43
0.0
 10
291177.2061798
 20
90897.30000000001
 10
291178.55
 20
90898.45
  0
LWPOLYLINE
  5
AAEB1
330
1F
100
AcDbEntity
  8
Line - General Feature
100
AcDbPolyline
 90
        2
 70
     0
 43
0.0
 10
291228.22
 20
90926.17999999999
 10
291225.87
 20
90923.58
  0
LWPOLYLINE
  5
AAEB2
330
1F
100
AcDbEntity
  8
Line - Building - Outline
100
AcDbPolyline
 90
        3
 70
     0
 43
0.0
 10
291161.927
 20
90904.43099999999
 10
291162.212
 20
90904.67999999999
 10
291163.56
 20
90905.86
  0
LWPOLYLINE
  5
AAEB3
330
1F
100
AcDbEntity
  8
Line - Building - Outline
100
AcDbPolyline
 90
        5
 70
     0
 43
0.0
 10
291213.38
 20
90940.35000000001
 10
291209.8
 20
90936.64999999999
 10
291216.12
 20
90930.58
 10
291217.25
 20
90929.60000000001
 10
291220.65
 20
90933.25
  0
LWPOLYLINE
  5
AAEB4
330
1F
100
AcDbEntity
  8
Line - General Feature
100
AcDbPolyline
 90
        3
 70
     0
 43
0.0
 10
291201.5
 20
90941.30000000001
 10
291200.0
 20
90939.94999999999
 10
291196.15
 20
90936.28999999999
  0
LWPOLYLINE
  5
AAEB5
330
1F
100
AcDbEntity
  8
Line - General Feature
100
AcDbPolyline
 90
        2
 70
     0
 43
0.0
 10
291227.95
 20
90977.94999999999
 10
291228.77
 20
90976.46000000001
  0
LWPOLYLINE
  5
AAEB6
330
1F
100
AcDbEntity
  8
Line - General Feature
100
AcDbPolyline
 90
        2
 70
     0
 43
0.0
 10
291245.96
 20
90962.54
 10
291240.62
 20
90959.66999999999
  0
LWPOLYLINE
  5
AAEB7
330
1F
100
AcDbEntity
  8
Line - General Feature
100
AcDbPolyline
 90
        2
 70
     0
 43
0.0
 10
291235.96
 20
90963.11999999999
 10
291237.7000000001
 20
90959.85
  0
LWPOLYLINE
  5
AAEB8
330
1F
100
AcDbEntity
  8
Line - General Feature
100
AcDbPolyline
 90
        3
 70
     0
 43
0.0
 10
291219.2000000001
 20
90985.6
 10
291218.2000000001
 20
90987.45
 10
291220.2
 20
90988.5
  0
LWPOLYLINE
  5
AAEB9
330
1F
100
AcDbEntity
  8
Line - General Feature
100
AcDbPolyline
 90
        2
 70
     0
 43
0.0
 10
291224.16
 20
90950.69
 10
291219.5
 20
90953.64999999999
  0
LWPOLYLINE
  5
AAEBA
330
1F
100
AcDbEntity
  8
Line - General Feature
100
AcDbPolyline
 90
        2
 70
     0
 43
0.0
 10
291219.5
 20
90953.64999999999
 10
291214.97
 20
90949.12
  0
LWPOLYLINE
  5
AAEBB
330
1F
100
AcDbEntity
  8
Line - General Feature
100
AcDbPolyline
 90
        2
 70
     0
 43
0.0
 10
291230.95
 20
90934.19
 10
291233.39
 20
90931.91
  0
LWPOLYLINE
  5
AAEBC
330
1F
100
AcDbEntity
  8
Line - Building - Outline
100
AcDbPolyline
 90
        2
 70
     0
 43
0.0
 10
291241.02
 20
90971.58
 10
291243.45
 20
90967.13000000001
  0
LWPOLYLINE
  5
AAEBD
330
1F
100
AcDbEntity
  8
Line - Building - Division
100
AcDbPolyline
 90
        2
 70
     0
 43
0.0
 10
291247.0
 20
90963.1015385
 10
291245.96
 20
90962.54
  0
LWPOLYLINE
  5
AAEBE
330
1F
100
AcDbEntity
  8
Line - General Feature
100
AcDbPolyline
 90
        2
 70
     0
 43
0.0
 10
291225.87
 20
90986.79999999999
 10
291231.14
 20
90989.67
  0
LWPOLYLINE
  5
AAEBF
330
1F
100
AcDbEntity
  8
Line - General Feature
100
AcDbPolyline
 90
        3
 70
     0
 43
0.0
 10
291230.87
 20
90977.61
 10
291230.05
 20
90979.1
 10
291227.95
 20
90977.94999999999
  0
LWPOLYLINE
  5
AAEC0
330
1F
100
AcDbEntity
  8
Line - Building - Division
100
AcDbPolyline
 90
        2
 70
     0
 43
0.0
 10
291243.45
 20
90967.13000000001
 10
291247.0
 20
90969.03347120001
  0
LWPOLYLINE
  5
AAEC1
330
1F
100
AcDbEntity
  8
Line - Building - Division
100
AcDbPolyline
 90
        2
 70
     0
 43
0.0
 10
291231.14
 20
90989.67
 10
291237.85
 20
90993.32
  0
LWPOLYLINE
  5
AAEC2
330
1F
100
AcDbEntity
  8
Line - General Feature
100
AcDbPolyline
 90
        2
 70
     0
 43
0.0
 10
291243.18
 20
90942.78
 10
291238.74
 20
90937.85999999999
  0
LWPOLYLINE
  5
AAEC3
330
1F
100
AcDbEntity
  8
Line - General Feature
100
AcDbPolyline
 90
        4
 70
     0
 43
0.0
 10
291227.0900000001
 20
90937.78999999999
 10
291225.05
 20
90935.85
 10
291228.95
 20
90932.1
 10
291230.95
 20
90934.19
  0
LWPOLYLINE
  5
AAEC4
330
1F
100
AcDbEntity
  8
Line - Road Or Track - Public
100
AcDbPolyline
 90
        2
 70
     0
 43
0.0
 10
291247.0
 20
90902.2177966
 10
291242.2434426
 20
90897.30000000001
  0
LWPOLYLINE
  5
AAEC5
330
1F
100
AcDbEntity
  8
Line - General Feature
100
AcDbPolyline
 90
        3
 70
     0
 43
0.0
 10
291235.75
 20
90968.59
 10
291234.9000000001
 20
90970.15
 10
291232.75
 20
90969.0
  0
LWPOLYLINE
  5
AAEC6
330
1F
100
AcDbEntity
  8
Line - General Feature
100
AcDbPolyline
 90
        2
 70
     0
 43
0.0
 10
291231.06
 20
90929.33999999999
 10
291247.0
 20
90913.84412360001
  0
LWPOLYLINE
  5
AAEC7
330
1F
100
AcDbEntity
  8
Line - Building - Outline
100
AcDbPolyline
 90
        2
 70
     0
 43
0.0
 10
291245.96
 20
90962.54
 10
291247.0
 20
90960.6333333
  0
LWPOLYLINE
  5
AAEC8
330
1F
100
AcDbEntity
  8
Line - Network Or Polygon Closing Geometry - Inferred Property Closing Link
100
AcDbPolyline
 90
        2
 70
     0
 43
0.0
 10
291202.285
 20
90940.56100000001
 10
291201.5
 20
90941.30000000001
  0
LWPOLYLINE
  5
AAEC9
330
1F
100
AcDbEntity
  8
Line - Building - Outline
100
AcDbPolyline
 90
        2
 70
     0
 43
0.0
 10
291214.85
 20
90911.35000000001
 10
291213.97
 20
90910.395
  0
LWPOLYLINE
  5
AAECA
330
1F
100
AcDbEntity
  8
Line - Building - Division
100
AcDbPolyline
 90
        2
 70
     0
 43
0.0
 10
291244.56
 20
90927.05
 10
291247.0
 20
90924.67138360001
  0
LWPOLYLINE
  5
AAECB
330
1F
100
AcDbEntity
  8
Line - Building - Division
100
AcDbPolyline
 90
        2
 70
     0
 43
0.0
 10
291233.91
 20
90915.92999999999
 10
291240.28
 20
90909.86
  0
LWPOLYLINE
  5
AAECC
330
1F
100
AcDbEntity
  8
Line - Building - Outline
100
AcDbPolyline
 90
       11
 70
     0
 43
0.0
 10
291247.0
 20
90917.5282946
 10
291240.9500000001
 20
90923.25
 10
291241.322
 20
90923.64400000001
 10
291241.499
 20
90923.83099999999
 10
291239.2870000001
 20
90925.933
 10
291239.341
 20
90927.76699999999
 10
291239.341
 20
90927.77299999999
 10
291239.419
 20
90927.84800000002
 10
291240.553
 20
90928.93699999999
 10
291240.655
 20
90929.034
 10
291242.395
 20
90929.16
  0
LWPOLYLINE
  5
AAECD
330
1F
100
AcDbEntity
  8
Line - Building - Outline
100
AcDbPolyline
 90
        4
 70
     0
 43
0.0
 10
291214.85
 20
90911.35000000001
 10
291216.92
 20
90909.67
 10
291220.55
 20
90913.64999999999
 10
291218.55
 20
90915.44999999999
  0
LWPOLYLINE
  5
AAECE
330
1F
100
AcDbEntity
  8
Line - General Feature
100
AcDbPolyline
 90
        2
 70
     0
 43
0.0
 10
291221.16
 20
90986.66000000001
 10
291219.2000000001
 20
90985.6
  0
LWPOLYLINE
  5
AAECF
330
1F
100
AcDbEntity
  8
Line - Road Or Track - Public
100
AcDbPolyline
 90
        2
 70
     0
 43
0.0
 10
291245.9281805
 20
90997.3
 10
291247.0
 20
90994.9437398
  0
LWPOLYLINE
  5
AAED0
330
1F
100
AcDbEntity
  8
Line - General Feature
100
AcDbPolyline
 90
        2
 70
     0
 43
0.0
 10
291230.87
 20
90977.61
 10
291236.1500000001
 20
90980.5
  0
LWPOLYLINE
  5
AAED1
330
1F
100
AcDbEntity
  8
Line - General Feature
100
AcDbPolyline
 90
        2
 70
     0
 43
0.0
 10
291153.049
 20
90970.97900000001
 10
291147.0
 20
90968.55186779999
  0
LWPOLYLINE
  5
AAED2
330
1F
100
AcDbEntity
  8
Line - General Feature
100
AcDbPolyline
 90
        2
 70
     0
 43
0.0
 10
291186.3
 20
90980.95
 10
291185.6500000001
 20
90980.52199999999
  0
LWPOLYLINE
  5
AAED3
330
1F
100
AcDbEntity
  8
Line - General Feature
100
AcDbPolyline
 90
        5
 70
     0
 43
0.0
 10
291147.35
 20
90976.35
 10
291149.9
 20
90977.44999999999
 10
291151.85
 20
90972.95
 10
291149.2500000001
 20
90971.85000000001
 10
291147.35
 20
90976.35
  0
LWPOLYLINE
  5
AAED4
330
1F
100
AcDbEntity
  8
Line - General Feature
100
AcDbPolyline
 90
        2
 70
     0
 43
0.0
 10
291186.0300000001
 20
90962.69000000001
 10
291183.7800000001
 20
90960.72000000001
  0
LWPOLYLINE
  5
AAED5
330
1F
100
AcDbEntity
  8
Line - Building - Outline
100
AcDbPolyline
 90
        3
 70
     0
 43
0.0
 10
291188.8300000001
 20
90967.52999999999
 10
291184.8
 20
90964.1
 10
291186.0300000001
 20
90962.69000000001
  0
LWPOLYLINE
  5
AAED6
330
1F
100
AcDbEntity
  8
Line - General Feature
100
AcDbPolyline
 90
        2
 70
     0
 43
0.0
 10
291189.36
 20
90942.34
 10
291195.37
 20
90947.54
  0
LWPOLYLINE
  5
AAED7
330
1F
100
AcDbEntity
  8
Line - Network Or Polygon Closing Geometry - Inferred Property Closing Link
100
AcDbPolyline
 90
        2
 70
     0
 43
0.0
 10
291147.2
 20
90952.25000000001
 10
291155.4
 20
90956.7
  0
LWPOLYLINE
  5
AAED8
330
1F
100
AcDbEntity
  8
Line - General Feature
100
AcDbPolyline
 90
        2
 70
     0
 43
0.0
 10
291166.43
 20
90977.77
 10
291161.95
 20
90974.55
  0
LWPOLYLINE
  5
AAED9
330
1F
100
AcDbEntity
  8
Line - Building - Outline
100
AcDbPolyline
 90
        4
 70
     0
 43
0.0
 10
291147.0
 20
90936.68571429999
 10
291147.23
 20
90936.85
 10
291154.35
 20
90941.55
 10
291151.67
 20
90945.52999999999
  0
LWPOLYLINE
  5
AAEDA
330
1F
100
AcDbEntity
  8
Line - General Feature
100
AcDbPolyline
 90
        2
 70
     0
 43
0.0
 10
291180.1500000001
 20
90976.9
 10
291187.061
 20
90969.44
  0
LWPOLYLINE
  5
AAEDB
330
1F
100
AcDbEntity
  8
Line - Building - Outline
100
AcDbPolyline
 90
        4
 70
     0
 43
0.0
 10
291178.083
 20
90967.17199999998
 10
291175.878
 20
90965.225
 10
291180.029
 20
90960.52400000001
 10
291182.234
 20
90962.47099999999
  0
LWPOLYLINE
  5
AAEDC
330
1F
100
AcDbEntity
  8
Line - Building - Division
100
AcDbPolyline
 90
        4
 70
     0
 43
0.0
 10
291176.691
 20
90984.60000000001
 10
291175.806
 20
90984.00900000001
 10
291175.1670000001
 20
90983.58199999999
 10
291173.7700000001
 20
90982.64999999999
  0
LWPOLYLINE
  5
AAEDD
330
1F
100
AcDbEntity
  8
Line - Building - Outline
100
AcDbPolyline
 90
        2
 70
     0
 43
0.0
 10
291176.2
 20
90957.965
 10
291177.82
 20
90956.02000000001
  0
LWPOLYLINE
  5
AAEDE
330
1F
100
AcDbEntity
  8
Line - General Feature
100
AcDbPolyline
 90
        2
 70
     0
 43
0.0
 10
291150.85
 20
90916.05000000001
 10
291147.0
 20
90912.68734180001
  0
LWPOLYLINE
  5
AAEDF
330
1F
100
AcDbEntity
  8
Line - Building - Outline
100
AcDbPolyline
 90
        4
 70
     0
 43
0.0
 10
291164.41
 20
90916.6
 10
291167.55
 20
90912.89999999998
 10
291173.85
 20
90918.05
 10
291170.64
 20
90921.85
  0
LWPOLYLINE
  5
AAEE0
330
1F
100
AcDbEntity
  8
Line - General Feature
100
AcDbPolyline
 90
        3
 70
     0
 43
0.0
 10
291161.75
 20
90903.05
 10
291164.3
 20
90900.0
 10
291166.02
 20
90897.92
  0
LWPOLYLINE
  5
AAEE1
330
1F
100
AcDbEntity
  8
Line - Building - Outline
100
AcDbPolyline
 90
        3
 70
     0
 43
0.0
 10
291155.623
 20
90901.17000000001
 10
291157.05
 20
90902.39999999999
 10
291158.83
 20
90900.4
  0
LWPOLYLINE
  5
AAEE2
330
1F
100
AcDbEntity
  8
Line - General Feature
100
AcDbPolyline
 90
        2
 70
     0
 43
0.0
 10
291161.1500000001
 20
90903.74999999999
 10
291161.927
 20
90904.43099999999
  0
LWPOLYLINE
  5
AAEE3
330
1F
100
AcDbEntity
  8
Line - Network Or Polygon Closing Geometry - Inferred Property Closing Link
100
AcDbPolyline
 90
        2
 70
     0
 43
0.0
 10
291185.35
 20
90995.2
 10
291184.16
 20
90996.59
  0
LWPOLYLINE
  5
AAEE4
330
1F
100
AcDbEntity
  8
Line - General Feature
100
AcDbPolyline
 90
        2
 70
     0
 43
0.0
 10
291153.1608224001
 20
90997.3
 10
291156.56
 20
90993.15
  0
LWPOLYLINE
  5
AAEE5
330
1F
100
AcDbEntity
  8
Line - Building - Outline
100
AcDbPolyline
 90
        6
 70
     0
 43
0.0
 10
291176.57
 20
90978.50000000001
 10
291176.119
 20
90979.16000000001
 10
291177.6
 20
90980.1
 10
291179.083
 20
90981.041
 10
291178.891
 20
90981.32600000001
 10
291176.691
 20
90984.60000000001
  0
LWPOLYLINE
  5
AAEE6
330
1F
100
AcDbEntity
  8
Line - General Feature
100
AcDbPolyline
 90
        2
 70
     0
 43
0.0
 10
291147.0
 20
90980.4427697
 10
291148.7970000001
 20
90981.22700000001
  0
LWPOLYLINE
  5
AAEE7
330
1F
100
AcDbEntity
  8
Line - General Feature
100
AcDbPolyline
 90
        2
 70
     0
 43
0.0
 10
291228.77
 20
90976.46000000001
 10
291230.87
 20
90977.61
  0
LWPOLYLINE
  5
AAEE8
330
1F
100
AcDbEntity
  8
Line - General Feature
100
AcDbPolyline
 90
        2
 70
     0
 43
0.0
 10
291228.77
 20
90976.46000000001
 10
291229.55
 20
90975.04999999999
  0
LWPOLYLINE
  5
AAEE9
330
1F
100
AcDbEntity
  8
Line - General Feature
100
AcDbPolyline
 90
        2
 70
     0
 43
0.0
 10
291180.1500000001
 20
90976.9
 10
291178.408
 20
90975.72500000001
  0
LWPOLYLINE
  5
AAEEA
330
1F
100
AcDbEntity
  8
Line - Building - Outline
100
AcDbPolyline
 90
        4
 70
     0
 43
0.0
 10
291182.919
 20
90978.72699999999
 10
291181.534
 20
90980.831
 10
291184.265
 20
90982.62599999999
 10
291185.6500000001
 20
90980.52199999999
  0
LWPOLYLINE
  5
AAEEB
330
1F
100
AcDbEntity
  8
Line - General Feature
100
AcDbPolyline
 90
        2
 70
     0
 43
0.0
 10
291222.08
 20
90984.91
 10
291222.92
 20
90983.30999999999
  0
LWPOLYLINE
  5
AAEEC
330
1F
100
AcDbEntity
  8
Line - General Feature
100
AcDbPolyline
 90
        3
 70
     0
 43
0.0
 10
291210.75
 20
90984.89999999999
 10
291207.8520000001
 20
90983.40400000001
 10
291206.242
 20
90982.573
  0
LWPOLYLINE
  5
AAEED
330
1F
100
AcDbEntity
  8
Line - General Feature
100
AcDbPolyline
 90
        2
 70
     0
 43
0.0
 10
291226.34
 20
90980.95
 10
291227.95
 20
90977.94999999999
  0
LWPOLYLINE
  5
AAEEE
330
1F
100
AcDbEntity
  8
Line - General Feature
100
AcDbPolyline
 90
        2
 70
     0
 43
0.0
 10
291220.12
 20
90983.91000000001
 10
291220.97
 20
90982.33999999999
  0
LWPOLYLINE
  5
AAEEF
330
1F
100
AcDbEntity
  8
Line - General Feature
100
AcDbPolyline
 90
        2
 70
     0
 43
0.0
 10
291223.7800000001
 20
90985.67
 10
291224.6
 20
90984.2
  0
LWPOLYLINE
  5
AAEF0
330
1F
100
AcDbEntity
  8
Line - General Feature
100
AcDbPolyline
 90
        2
 70
     0
 43
0.0
 10
291226.34
 20
90980.95
 10
291233.72
 20
90984.96
  0
LWPOLYLINE
  5
AAEF1
330
1F
100
AcDbEntity
  8
Line - Building - Outline
100
AcDbPolyline
 90
        2
 70
     0
 43
0.0
 10
291233.72
 20
90984.96
 10
291236.1500000001
 20
90980.5
  0
LWPOLYLINE
  5
AAEF2
330
1F
100
AcDbEntity
  8
Line - General Feature
100
AcDbPolyline
 90
        2
 70
     0
 43
0.0
 10
291148.7970000001
 20
90981.22700000001
 10
291160.3
 20
90986.25
  0
LWPOLYLINE
  5
AAEF3
330
1F
100
AcDbEntity
  8
Line - General Feature
100
AcDbPolyline
 90
        2
 70
     0
 43
0.0
 10
291160.3
 20
90986.25
 10
291161.55
 20
90986.79999999999
  0
LWPOLYLINE
  5
AAEF4
330
1F
100
AcDbEntity
  8
Line - General Feature
100
AcDbPolyline
 90
        3
 70
     0
 43
0.0
 10
291224.6
 20
90984.2
 10
291226.7
 20
90985.3
 10
291225.87
 20
90986.79999999999
  0
LWPOLYLINE
  5
AAEF5
330
1F
100
AcDbEntity
  8
Line - General Feature
100
AcDbPolyline
 90
        2
 70
     0
 43
0.0
 10
291212.9000000001
 20
90986.01
 10
291215.24
 20
90987.21000000001
  0
LWPOLYLINE
  5
AAEF6
330
1F
100
AcDbEntity
  8
Line - General Feature
100
AcDbPolyline
 90
        2
 70
     0
 43
0.0
 10
291215.24
 20
90987.21000000001
 10
291217.31
 20
90988.28000000001
  0
LWPOLYLINE
  5
AAEF7
330
1F
100
AcDbEntity
  8
Line - General Feature
100
AcDbPolyline
 90
        2
 70
     0
 43
0.0
 10
291220.2
 20
90988.5
 10
291221.16
 20
90986.66000000001
  0
LWPOLYLINE
  5
AAEF8
330
1F
100
AcDbEntity
  8
Line - Building - Outline
100
AcDbPolyline
 90
        2
 70
     0
 43
0.0
 10
291208.5
 20
90989.25000000001
 10
291210.75
 20
90984.89999999999
  0
LWPOLYLINE
  5
AAEF9
330
1F
100
AcDbEntity
  8
Line - General Feature
100
AcDbPolyline
 90
        3
 70
     0
 43
0.0
 10
291225.87
 20
90986.79999999999
 10
291225.05
 20
90988.30000000001
 10
291222.95
 20
90987.15
  0
LWPOLYLINE
  5
AAEFA
330
1F
100
AcDbEntity
  8
Line - General Feature
100
AcDbPolyline
 90
        2
 70
     0
 43
0.0
 10
291222.92
 20
90983.30999999999
 10
291220.97
 20
90982.33999999999
  0
LWPOLYLINE
  5
AAEFB
330
1F
100
AcDbEntity
  8
Line - General Feature
100
AcDbPolyline
 90
        2
 70
     0
 43
0.0
 10
291224.6
 20
90984.2
 10
291226.34
 20
90980.95
  0
LWPOLYLINE
  5
AAEFC
330
1F
100
AcDbEntity
  8
Line - General Feature
100
AcDbPolyline
 90
        2
 70
     0
 43
0.0
 10
291222.08
 20
90984.91
 10
291220.12
 20
90983.91000000001
  0
LWPOLYLINE
  5
AAEFD
330
1F
100
AcDbEntity
  8
Line - Building - Outline
100
AcDbPolyline
 90
        2
 70
     0
 43
0.0
 10
291210.75
 20
90984.89999999999
 10
291212.9000000001
 20
90986.01
  0
LWPOLYLINE
  5
AAEFE
330
1F
100
AcDbEntity
  8
Line - Building - Division
100
AcDbPolyline
 90
        2
 70
     0
 43
0.0
 10
291173.7700000001
 20
90982.64999999999
 10
291166.43
 20
90977.77
  0
LWPOLYLINE
  5
AAEFF
330
1F
100
AcDbEntity
  8
Line - General Feature
100
AcDbPolyline
 90
        2
 70
     0
 43
0.0
 10
291223.7800000001
 20
90985.67
 10
291225.87
 20
90986.79999999999
  0
LWPOLYLINE
  5
AAF00
330
1F
100
AcDbEntity
  8
Line - Building - Outline
100
AcDbPolyline
 90
        2
 70
     0
 43
0.0
 10
291177.9000000001
 20
90985.40600000001
 10
291176.691
 20
90984.60000000001
  0
LWPOLYLINE
  5
AAF01
330
1F
100
AcDbEntity
  8
Line - Road Or Track - Public
100
AcDbPolyline
 90
       12
 70
     0
 43
0.0
 10
291147.0
 20
90993.39999999999
 10
291147.1
 20
90993.1
 10
291147.2
 20
90992.75
 10
291147.3
 20
90992.25
 10
291147.35
 20
90991.9
 10
291147.4000000001
 20
90991.60000000001
 10
291147.45
 20
90991.25
 10
291147.45
 20
90990.9
 10
291147.3
 20
90989.55
 10
291147.2
 20
90989.14999999999
 10
291147.05
 20
90988.80000000001
 10
291147.0
 20
90988.6
  0
LWPOLYLINE
  5
AAF02
330
1F
100
AcDbEntity
  8
Line - General Feature
100
AcDbPolyline
 90
        2
 70
     0
 43
0.0
 10
291184.16
 20
90996.59
 10
291185.7855263001
 20
90997.3
  0
LWPOLYLINE
  5
AAF03
330
1F
100
AcDbEntity
  8
Line - General Feature
100
AcDbPolyline
 90
        2
 70
     0
 43
0.0
 10
291192.6444444001
 20
90997.3
 10
291192.72
 20
90997.21999999999
  0
LWPOLYLINE
  5
AAF04
330
1F
100
AcDbEntity
  8
Line - General Feature
100
AcDbPolyline
 90
        2
 70
     0
 43
0.0
 10
291202.35
 20
90994.6
 10
291200.9844828
 20
90997.3
  0
LWPOLYLINE
  5
AAF05
330
1F
100
AcDbEntity
  8
Line - General Feature
100
AcDbPolyline
 90
        2
 70
     0
 43
0.0
 10
291203.9887952
 20
90997.3
 10
291204.74
 20
90995.85000000001
  0
LWPOLYLINE
  5
AAF06
330
1F
100
AcDbEntity
  8
Line - General Feature
100
AcDbPolyline
 90
        2
 70
     0
 43
0.0
 10
291207.5220168
 20
90997.3
 10
291206.81
 20
90996.93
  0
LWPOLYLINE
  5
AAF07
330
1F
100
AcDbEntity
  8
Line - General Feature
100
AcDbPolyline
 90
        2
 70
     0
 43
0.0
 10
291228.7
 20
90994.15
 10
291227.2
 20
90996.75000000001
  0
LWPOLYLINE
  5
AAF08
330
1F
100
AcDbEntity
  8
Line - General Feature
100
AcDbPolyline
 90
        2
 70
     0
 43
0.0
 10
291227.2
 20
90996.75000000001
 10
291226.9097222
 20
90997.3
  0
LWPOLYLINE
  5
AAF09
330
1F
100
AcDbEntity
  8
Line - General Feature
100
AcDbPolyline
 90
       14
 70
     0
 43
0.0
 10
291220.05
 20
90993.05000000001
 10
291219.25
 20
90994.44999999999
 10
291219.25
 20
90994.7
 10
291219.3
 20
90994.95
 10
291219.4
 20
90995.2
 10
291219.45
 20
90995.45
 10
291219.55
 20
90995.74999999999
 10
291219.65
 20
90996.1
 10
291219.75
 20
90996.35000000001
 10
291219.85
 20
90996.55
 10
291219.95
 20
90996.80000000001
 10
291220.1
 20
90997.0
 10
291220.15
 20
90997.14999999999
 10
291220.25
 20
90997.3
  0
LWPOLYLINE
  5
AAF0A
330
1F
100
AcDbEntity
  8
Line - Building - Outline
100
AcDbPolyline
 90
        2
 70
     0
 43
0.0
 10
291237.85
 20
90993.32
 10
291235.6647196
 20
90997.3
  0
LWPOLYLINE
  5
AAF0B
330
1F
100
AcDbEntity
  8
Line - General Feature
100
AcDbPolyline
 90
       10
 70
     0
 43
0.0
 10
291218.4
 20
90997.3
 10
291218.35
 20
90997.14999999999
 10
291218.25
 20
90997.0
 10
291218.2000000001
 20
90996.85
 10
291218.1
 20
90996.69999999999
 10
291217.95
 20
90996.24999999999
 10
291217.85
 20
90996.1
 10
291217.1500000001
 20
90994.0
 10
291217.1500000001
 20
90993.8
 10
291216.97
 20
90993.61999999999
  0
LWPOLYLINE
  5
AAF0C
330
1F
100
AcDbEntity
  8
Line - Building - Outline
100
AcDbPolyline
 90
        2
 70
     0
 43
0.0
 10
291231.14
 20
90989.67
 10
291233.72
 20
90984.96
  0
LWPOLYLINE
  5
AAF0D
330
1F
100
AcDbEntity
  8
Line - General Feature
100
AcDbPolyline
 90
        2
 70
     0
 43
0.0
 10
291192.72
 20
90997.21999999999
 10
291193.1
 20
90997.3
  0
LWPOLYLINE
  5
AAF0E
330
1F
100
AcDbEntity
  8
Line - General Feature
100
AcDbPolyline
 90
        2
 70
     0
 43
0.0
 10
291247.0
 20
90906.29923660001
 10
291245.56
 20
90904.84
  0
LWPOLYLINE
  5
AAF0F
330
1F
100
AcDbEntity
  8
Line - General Feature
100
AcDbPolyline
 90
        2
 70
     0
 43
0.0
 10
291240.28
 20
90909.86
 10
291245.56
 20
90904.84
  0
LWPOLYLINE
  5
AAF10
330
1F
100
AcDbEntity
  8
Line - General Feature
100
AcDbPolyline
 90
        2
 70
     0
 43
0.0
 10
291235.3
 20
90903.89999999999
 10
291240.05
 20
90899.25
  0
LWPOLYLINE
  5
AAF11
330
1F
100
AcDbEntity
  8
Line - Building - Outline
100
AcDbPolyline
 90
        3
 70
     0
 43
0.0
 10
291230.45
 20
90912.35000000001
 10
291230.2970000001
 20
90912.19199999999
 10
291228.614
 20
90910.451
  0
LWPOLYLINE
  5
AAF12
330
1F
100
AcDbEntity
  8
Line - General Feature
100
AcDbPolyline
 90
        5
 70
     0
 43
0.0
 10
291231.85
 20
90938.55000000001
 10
291229.9000000001
 20
90936.5
 10
291233.35
 20
90933.25
 10
291235.3
 20
90935.30000000001
 10
291231.85
 20
90938.55000000001
  0
LWPOLYLINE
  5
AAF13
330
1F
100
AcDbEntity
  8
Line - General Feature
100
AcDbPolyline
 90
        5
 70
     0
 43
0.0
 10
291233.85
 20
90930.9
 10
291232.1
 20
90929.10000000001
 10
291236.1500000001
 20
90925.15
 10
291237.9000000001
 20
90926.95
 10
291233.85
 20
90930.9
  0
LWPOLYLINE
  5
AAF14
330
1F
100
AcDbEntity
  8
Line - General Feature
100
AcDbPolyline
 90
        2
 70
     0
 43
0.0
 10
291231.06
 20
90929.33999999999
 10
291228.22
 20
90926.17999999999
  0
LWPOLYLINE
  5
AAF15
330
1F
100
AcDbEntity
  8
Line - Building - Outline
100
AcDbPolyline
 90
        2
 70
     0
 43
0.0
 10
291242.395
 20
90929.16
 10
291243.075
 20
90928.49699999998
  0
LWPOLYLINE
  5
AAF16
330
1F
100
AcDbEntity
  8
Line - Building - Division
100
AcDbPolyline
 90
        2
 70
     0
 43
0.0
 10
291227.748
 20
90911.299
 10
291228.614
 20
90910.451
  0
LWPOLYLINE
  5
AAF17
330
1F
100
AcDbEntity
  8
Line - General Feature
100
AcDbPolyline
 90
        2
 70
     0
 43
0.0
 10
291238.74
 20
90937.85999999999
 10
291231.15
 20
90945.55000000001
  0
LWPOLYLINE
  5
AAF18
330
1F
100
AcDbEntity
  8
Line - General Feature
100
AcDbPolyline
 90
        2
 70
     0
 43
0.0
 10
291243.18
 20
90942.78
 10
291244.97
 20
90940.87
  0
LWPOLYLINE
  5
AAF19
330
1F
100
AcDbEntity
  8
Line - General Feature
100
AcDbPolyline
 90
        2
 70
     0
 43
0.0
 10
291236.28
 20
90935.12
 10
291233.39
 20
90931.91
  0
LWPOLYLINE
  5
AAF1A
330
1F
100
AcDbEntity
  8
Line - Building - Outline
100
AcDbPolyline
 90
        9
 70
     0
 43
0.0
 10
291240.28
 20
90909.86
 10
291243.65
 20
90913.35
 10
291237.3
 20
90919.45
 10
291236.795
 20
90918.925
 10
291235.053
 20
90920.60299999999
 10
291233.539
 20
90920.52499999999
 10
291233.492
 20
90920.47500000001
 10
291232.3660000001
 20
90919.29099999999
 10
291232.2920000001
 20
90917.469
  0
LWPOLYLINE
  5
AAF1B
330
1F
100
AcDbEntity
  8
Line - Road Or Track - Public
100
AcDbPolyline
 90
       10
 70
     0
 43
0.0
 10
291211.8692308001
 20
90897.30000000001
 10
291211.5
 20
90897.60000000001
 10
291210.6500000001
 20
90898.19999999999
 10
291210.2500000001
 20
90898.5
 10
291200.15
 20
90906.54999999999
 10
291197.3
 20
90909.1
 10
291195.75
 20
90910.55
 10
291192.0
 20
90914.04999999999
 10
291187.8
 20
90918.05
 10
291185.4
 20
90920.45
  0
LWPOLYLINE
  5
AAF1C
330
1F
100
AcDbEntity
  8
Line - General Feature
100
AcDbPolyline
 90
        3
 70
     0
 43
0.0
 10
291151.45
 20
90915.35
 10
291154.8
 20
90911.35000000001
 10
291156.31
 20
90909.58
  0
LWPOLYLINE
  5
AAF1D
330
1F
100
AcDbEntity
  8
Line - General Feature
100
AcDbPolyline
 90
        2
 70
     0
 43
0.0
 10
291218.55
 20
90915.44999999999
 10
291214.85
 20
90911.35000000001
  0
LWPOLYLINE
  5
AAF1E
330
1F
100
AcDbEntity
  8
Line - Building - Outline
100
AcDbPolyline
 90
        2
 70
     0
 43
0.0
 10
291153.05
 20
90898.95
 10
291151.64
 20
90897.71
  0
LWPOLYLINE
  5
AAF1F
330
1F
100
AcDbEntity
  8
Line - General Feature
100
AcDbPolyline
 90
        2
 70
     0
 43
0.0
 10
291223.3200000001
 20
90920.75000000001
 10
291220.87
 20
90918.03
  0
LWPOLYLINE
  5
AAF20
330
1F
100
AcDbEntity
  8
Line - Building - Outline
100
AcDbPolyline
 90
        2
 70
     0
 43
0.0
 10
291194.6134021
 20
90897.30000000001
 10
291192.3900000001
 20
90900.03000000001
  0
LWPOLYLINE
  5
AAF21
330
1F
100
AcDbEntity
  8
Line - General Feature
100
AcDbPolyline
 90
        4
 70
     0
 43
0.0
 10
291218.98
 20
90924.85000000001
 10
291217.1
 20
90922.75
 10
291221.05
 20
90919.30000000001
 10
291222.8300000001
 20
90921.21999999999
  0
LWPOLYLINE
  5
AAF22
330
1F
100
AcDbEntity
  8
Line - General Feature
100
AcDbPolyline
 90
        2
 70
     0
 43
0.0
 10
291156.31
 20
90909.58
 10
291161.1500000001
 20
90903.74999999999
  0
LWPOLYLINE
  5
AAF23
330
1F
100
AcDbEntity
  8
Line - General Feature
100
AcDbPolyline
 90
        2
 70
     0
 43
0.0
 10
291171.3
 20
90912.5
 10
291175.5
 20
90916.05000000001
  0
LWPOLYLINE
  5
AAF24
330
1F
100
AcDbEntity
  8
Line - General Feature
100
AcDbPolyline
 90
        2
 70
     0
 43
0.0
 10
291187.4500000001
 20
90915.7
 10
291192.95
 20
90910.75
  0
LWPOLYLINE
  5
AAF25
330
1F
100
AcDbEntity
  8
Line - General Feature
100
AcDbPolyline
 90
        2
 70
     0
 43
0.0
 10
291192.95
 20
90910.75
 10
291198.85
 20
90905.35
  0
LWPOLYLINE
  5
AAF26
330
1F
100
AcDbEntity
  8
Line - General Feature
100
AcDbPolyline
 90
        3
 70
     0
 43
0.0
 10
291173.0732394
 20
90897.30000000001
 10
291176.8
 20
90900.44999999999
 10
291178.55
 20
90898.45
  0
LWPOLYLINE
  5
AAF27
330
1F
100
AcDbEntity
  8
Line - General Feature
100
AcDbPolyline
 90
        2
 70
     0
 43
0.0
 10
291221.3
 20
90917.6
 10
291225.4000000001
 20
90913.60000000001
  0
LWPOLYLINE
  5
AAF28
330
1F
100
AcDbEntity
  8
Line - General Feature
100
AcDbPolyline
 90
        2
 70
     0
 43
0.0
 10
291206.35
 20
90898.85
 10
291208.3043478
 20
90897.30000000001
  0
LWPOLYLINE
  5
AAF29
330
1F
100
AcDbEntity
  8
Line - Building - Division
100
AcDbPolyline
 90
        2
 70
     0
 43
0.0
 10
291175.12
 20
90905.43
 10
291181.5800000001
 20
90910.79
  0
LWPOLYLINE
  5
AAF2A
330
1F
100
AcDbEntity
  8
Line - Building - Outline
100
AcDbPolyline
 90
        3
 70
     0
 43
0.0
 10
291227.1
 20
90915.35
 10
291223.05
 20
90919.35000000001
 10
291221.3
 20
90917.6
  0
LWPOLYLINE
  5
AAF2B
330
1F
100
AcDbEntity
  8
Line - Building - Outline
100
AcDbPolyline
 90
        3
 70
     0
 43
0.0
 10
291157.4
 20
90920.5
 10
291155.8
 20
90922.45
 10
291153.096
 20
90920.202
  0
LWPOLYLINE
  5
AAF2C
330
1F
100
AcDbEntity
  8
Line - Building - Outline
100
AcDbPolyline
 90
        3
 70
     0
 43
0.0
 10
291169.4310000001
 20
90907.032
 10
291171.95
 20
90909.1
 10
291173.29
 20
90910.2
  0
LWPOLYLINE
  5
AAF2D
330
1F
100
AcDbEntity
  8
Line - Building - Outline
100
AcDbPolyline
 90
        2
 70
     0
 43
0.0
 10
291225.4000000001
 20
90913.60000000001
 10
291227.1
 20
90915.35
  0
LWPOLYLINE
  5
AAF2E
330
1F
100
AcDbEntity
  8
Line - Building - Outline
100
AcDbPolyline
 90
        4
 70
     0
 43
0.0
 10
291213.97
 20
90910.395
 10
291212.07
 20
90912.14500000001
 10
291212.9500000001
 20
90913.10000000001
 10
291215.94
 20
90916.44999999999
  0
LWPOLYLINE
  5
AAF2F
330
1F
100
AcDbEntity
  8
Line - Building - Outline
100
AcDbPolyline
 90
        6
 70
     0
 43
0.0
 10
291169.5
 20
90906.95
 10
291170.239
 20
90906.07099999999
 10
291168.498
 20
90904.609
 10
291170.469
 20
90902.29199999999
 10
291172.195
 20
90903.741
 10
291172.555
 20
90903.313
  0
LWPOLYLINE
  5
AAF30
330
1F
100
AcDbEntity
  8
Line - General Feature
100
AcDbPolyline
 90
        2
 70
     0
 43
0.0
 10
291175.5
 20
90916.05000000001
 10
291181.65
 20
90921.3
  0
LWPOLYLINE
  5
AAF31
330
1F
100
AcDbEntity
  8
Line - Network Or Polygon Closing Geometry - Polygon Closing Link
100
AcDbPolyline
 90
        2
 70
     0
 43
0.0
 10
291189.7
 20
90929.4
 10
291185.4
 20
90920.45
  0
LWPOLYLINE
  5
AAF32
330
1F
100
AcDbEntity
  8
Line - General Feature
100
AcDbPolyline
 90
        4
 70
     0
 43
0.0
 10
291222.8300000001
 20
90921.21999999999
 10
291224.45
 20
90922.95
 10
291220.5
 20
90926.55
 10
291218.98
 20
90924.85000000001
  0
LWPOLYLINE
  5
AAF33
330
1F
100
AcDbEntity
  8
Line - General Feature
100
AcDbPolyline
 90
        2
 70
     0
 43
0.0
 10
291228.22
 20
90926.17999999999
 10
291220.65
 20
90933.25
  0
LWPOLYLINE
  5
AAF34
330
1F
100
AcDbEntity
  8
Line - General Feature
100
AcDbPolyline
 90
        3
 70
     0
 43
0.0
 10
291192.3900000001
 20
90900.03000000001
 10
291192.6
 20
90900.2
 10
291198.85
 20
90905.35
  0
LWPOLYLINE
  5
AAF35
330
1F
100
AcDbEntity
  8
Line - General Feature
100
AcDbPolyline
 90
        2
 70
     0
 43
0.0
 10
291225.87
 20
90923.58
 10
291223.3200000001
 20
90920.75000000001
  0
LWPOLYLINE
  5
AAF36
330
1F
100
AcDbEntity
  8
Line - Network Or Polygon Closing Geometry - Inferred Property Closing Link
100
AcDbPolyline
 90
        2
 70
     0
 43
0.0
 10
291222.8300000001
 20
90921.21999999999
 10
291223.3200000001
 20
90920.75000000001
  0
LWPOLYLINE
  5
AAF37
330
1F
100
AcDbEntity
  8
Line - General Feature
100
AcDbPolyline
 90
        3
 70
     0
 43
0.0
 10
291198.85
 20
90905.35
 10
291200.05
 20
90904.39999999999
 10
291202.1500000001
 20
90902.50000000001
  0
LWPOLYLINE
  5
AAF38
330
1F
100
AcDbEntity
  8
Line - General Feature
100
AcDbPolyline
 90
        2
 70
     0
 43
0.0
 10
291218.98
 20
90924.85000000001
 10
291222.8300000001
 20
90921.21999999999
  0
LWPOLYLINE
  5
AAF39
330
1F
100
AcDbEntity
  8
Line - General Feature
100
AcDbPolyline
 90
        2
 70
     0
 43
0.0
 10
291176.75
 20
90927.05
 10
291181.65
 20
90921.3
  0
LWPOLYLINE
  5
AAF3A
330
1F
100
AcDbEntity
  8
Line - Building - Outline
100
AcDbPolyline
 90
        3
 70
     0
 43
0.0
 10
291177.53
 20
90913.69999999999
 10
291178.45
 20
90914.45
 10
291181.5800000001
 20
90910.79
  0
LWPOLYLINE
  5
AAF3B
330
1F
100
AcDbEntity
  8
Line - Network Or Polygon Closing Geometry - Polygon Closing Link
100
AcDbPolyline
 90
        2
 70
     0
 43
0.0
 10
291182.5
 20
90936.85
 10
291189.7
 20
90929.4
  0
LWPOLYLINE
  5
AAF3C
330
1F
100
AcDbEntity
  8
Line - General Feature
100
AcDbPolyline
 90
        2
 70
     0
 43
0.0
 10
291220.87
 20
90918.03
 10
291221.3
 20
90917.6
  0
LWPOLYLINE
  5
AAF3D
330
1F
100
AcDbEntity
  8
Line - Building - Outline
100
AcDbPolyline
 90
        4
 70
     0
 43
0.0
 10
291192.3900000001
 20
90900.03000000001
 10
291189.1500000001
 20
90904.0
 10
291182.4000000001
 20
90898.60000000001
 10
291180.8188778
 20
90897.30000000001
  0
LWPOLYLINE
  5
AAF3E
330
1F
100
AcDbEntity
  8
Line - Network Or Polygon Closing Geometry - Inferred Property Closing Link
100
AcDbPolyline
 90
        2
 70
     0
 43
0.0
 10
291213.97
 20
90910.395
 10
291211.148
 20
90907.33300000001
  0
LWPOLYLINE
  5
AAF3F
330
1F
100
AcDbEntity
  8
Line - General Feature
100
AcDbPolyline
 90
        2
 70
     0
 43
0.0
 10
291166.02
 20
90897.92
 10
291166.5245098
 20
90897.30000000001
  0
LWPOLYLINE
  5
AAF40
330
1F
100
AcDbEntity
  8
Line - Building - Outline
100
AcDbPolyline
 90
        7
 70
     0
 43
0.0
 10
291161.927
 20
90904.43099999999
 10
291161.935
 20
90904.422
 10
291163.286
 20
90902.81199999999
 10
291163.576
 20
90903.05499999999
 10
291164.9480000001
 20
90904.20699999999
 10
291165.5
 20
90903.55
 10
291169.5
 20
90906.95
  0
LWPOLYLINE
  5
AAF41
330
1F
100
AcDbEntity
  8
Line - Building - Outline
100
AcDbPolyline
 90
        2
 70
     0
 43
0.0
 10
291153.05
 20
90898.95
 10
291155.623
 20
90901.17000000001
  0
LWPOLYLINE
  5
AAF42
330
1F
100
AcDbEntity
  8
Line - Building - Outline
100
AcDbPolyline
 90
        6
 70
     0
 43
0.0
 10
291181.5800000001
 20
90910.79
 10
291184.6500000001
 20
90907.20000000001
 10
291178.25
 20
90901.8
 10
291177.252
 20
90902.957
 10
291174.701
 20
90900.75699999999
 10
291172.555
 20
90903.313
  0
LWPOLYLINE
  5
AAF43
330
1F
100
AcDbEntity
  8
Line - Building - Outline
100
AcDbPolyline
 90
        9
 70
     0
 43
0.0
 10
291204.63
 20
90927.98
 10
291201.2000000001
 20
90924.6
 10
291198.524
 20
90921.96699999998
 10
291203.564
 20
90916.84500000001
 10
291206.24
 20
90919.47800000001
 10
291207.35
 20
90918.35000000001
 10
291208.5300000001
 20
90919.523
 10
291210.332
 20
90917.709
 10
291212.542
 20
90919.906
  0
LWPOLYLINE
  5
AAF44
330
1F
100
AcDbEntity
  8
Line - General Feature
100
AcDbPolyline
 90
        2
 70
     0
 43
0.0
 10
291167.1
 20
90938.64999999999
 10
291171.9000000001
 20
90932.85000000001
  0
LWPOLYLINE
  5
AAF45
330
1F
100
AcDbEntity
  8
Line - Building - Division
100
AcDbPolyline
 90
        2
 70
     0
 43
0.0
 10
291147.0
 20
90942.51246149999
 10
291151.67
 20
90945.52999999999
  0
LWPOLYLINE
  5
AAF46
330
1F
100
AcDbEntity
  8
Line - Building - Division
100
AcDbPolyline
 90
        2
 70
     0
 43
0.0
 10
291170.64
 20
90921.85
 10
291164.41
 20
90916.6
  0
LWPOLYLINE
  5
AAF47
330
1F
100
AcDbEntity
  8
Line - General Feature
100
AcDbPolyline
 90
        2
 70
     0
 43
0.0
 10
291207.11
 20
90946.4
 10
291201.5
 20
90941.30000000001
  0
LWPOLYLINE
  5
AAF48
330
1F
100
AcDbEntity
  8
Line - General Feature
100
AcDbPolyline
 90
        3
 70
     0
 43
0.0
 10
291178.55
 20
90898.45
 10
291180.25
 20
90899.95
 10
291192.95
 20
90910.75
  0
LWPOLYLINE
  5
AAF49
330
1F
100
AcDbEntity
  8
Line - General Feature
100
AcDbPolyline
 90
        2
 70
     0
 43
0.0
 10
291164.41
 20
90916.6
 10
291156.31
 20
90909.58
  0
LWPOLYLINE
  5
AAF4A
330
1F
100
AcDbEntity
  8
Line - General Feature
100
AcDbPolyline
 90
        2
 70
     0
 43
0.0
 10
291177.53
 20
90913.69999999999
 10
291175.5
 20
90916.05000000001
  0
LWPOLYLINE
  5
AAF4B
330
1F
100
AcDbEntity
  8
Line - Building - Outline
100
AcDbPolyline
 90
        2
 70
     0
 43
0.0
 10
291173.29
 20
90910.2
 10
291177.53
 20
90913.69999999999
  0
LWPOLYLINE
  5
AAF4C
330
1F
100
AcDbEntity
  8
Line - Building - Division
100
AcDbPolyline
 90
        2
 70
     0
 43
0.0
 10
291147.0
 20
90901.52482010001
 10
291149.1
 20
90903.30000000001
  0
LWPOLYLINE
  5
AAF4D
330
1F
100
AcDbEntity
  8
Line - General Feature
100
AcDbPolyline
 90
        3
 70
     0
 43
0.0
 10
291157.86
 20
90899.54
 10
291159.3
 20
90898.0
 10
291158.5525424
 20
90897.30000000001
  0
LWPOLYLINE
  5
AAF4E
330
1F
100
AcDbEntity
  8
Line - General Feature
100
AcDbPolyline
 90
        3
 70
     0
 43
0.0
 10
291157.86
 20
90899.54
 10
291158.45
 20
90900.05000000001
 10
291158.83
 20
90900.4
  0
LWPOLYLINE
  5
AAF4F
330
1F
100
AcDbEntity
  8
Line - General Feature
100
AcDbPolyline
 90
        2
 70
     0
 43
0.0
 10
291158.83
 20
90900.4
 10
291161.75
 20
90903.05
  0
LWPOLYLINE
  5
AAF50
330
1F
100
AcDbEntity
  8
Line - General Feature
100
AcDbPolyline
 90
        2
 70
     0
 43
0.0
 10
291151.9803398
 20
90897.30000000001
 10
291151.64
 20
90897.71
  0
LWPOLYLINE
  5
AAF51
330
1F
100
AcDbEntity
  8
Line - Building - Outline
100
AcDbPolyline
 90
        2
 70
     0
 43
0.0
 10
291147.0
 20
90920.7219101
 10
291150.85
 20
90916.05000000001
  0
LWPOLYLINE
  5
AAF52
330
1F
100
AcDbEntity
  8
Line - General Feature
100
AcDbPolyline
 90
        3
 70
     0
 43
0.0
 10
291204.2100000001
 20
90900.66
 10
291204.95
 20
90900.0
 10
291206.35
 20
90898.85
  0
LWPOLYLINE
  5
AAF53
330
1F
100
AcDbEntity
  8
Line - General Feature
100
AcDbPolyline
 90
        2
 70
     0
 43
0.0
 10
291166.02
 20
90897.92
 10
291172.555
 20
90903.313
  0
LWPOLYLINE
  5
AAF54
330
1F
100
AcDbEntity
  8
Line - Building - Outline
100
AcDbPolyline
 90
        3
 70
     0
 43
0.0
 10
291153.096
 20
90920.202
 10
291151.6500000001
 20
90919.0
 10
291153.35
 20
90917.0
  0
LWPOLYLINE
  5
AAF55
330
1F
100
AcDbEntity
  8
Line - Building - Outline
100
AcDbPolyline
 90
        2
 70
     0
 43
0.0
 10
291169.5
 20
90906.95
 10
291169.4310000001
 20
90907.032
  0
LWPOLYLINE
  5
AAF56
330
1F
100
AcDbEntity
  8
Line - Building - Division
100
AcDbPolyline
 90
        2
 70
     0
 43
0.0
 10
291172.555
 20
90903.313
 10
291175.12
 20
90905.43
  0
LWPOLYLINE
  5
AAF57
330
1F
100
AcDbEntity
  8
Line - Building - Outline
100
AcDbPolyline
 90
        4
 70
     0
 43
0.0
 10
291153.096
 20
90920.202
 10
291151.639
 20
90921.91699999998
 10
291149.695
 20
90924.20399999999
 10
291149.687
 20
90924.21300000001
  0
LWPOLYLINE
  5
AAF58
330
1F
100
AcDbEntity
  8
Line - Network Or Polygon Closing Geometry - Inferred Property Closing Link
100
AcDbPolyline
 90
        2
 70
     0
 43
0.0
 10
291167.56
 20
90909.25999999999
 10
291171.3
 20
90912.5
  0
LWPOLYLINE
  5
AAF59
330
1F
100
AcDbEntity
  8
Line - Building - Outline
100
AcDbPolyline
 90
        3
 70
     0
 43
0.0
 10
291147.0
 20
90914.1688715
 10
291149.0560000001
 20
90915.888
 10
291147.0
 20
90918.3315865
  0
LWPOLYLINE
  5
AAF5A
330
1F
100
AcDbEntity
  8
Line - Building - Outline
100
AcDbPolyline
 90
        2
 70
     0
 43
0.0
 10
291155.623
 20
90901.17000000001
 10
291151.662
 20
90905.532
  0
LWPOLYLINE
  5
AAF5B
330
1F
100
AcDbEntity
  8
Line - Road Or Track - Public
100
AcDbPolyline
 90
        2
 70
     0
 43
0.0
 10
291151.018
 20
90997.3
 10
291160.3
 20
90986.25
  0
LWPOLYLINE
  5
AAF5C
330
1F
100
AcDbEntity
  8
Line - Network Or Polygon Closing Geometry - Inferred Property Closing Link
100
AcDbPolyline
 90
        2
 70
     0
 43
0.0
 10
291156.56
 20
90993.15
 10
291161.43
 20
90997.14999999999
  0
LWPOLYLINE
  5
AAF5D
330
1F
100
AcDbEntity
  8
Line - Building - Division
100
AcDbPolyline
 90
        2
 70
     0
 43
0.0
 10
291161.43
 20
90997.14999999999
 10
291161.6126316
 20
90997.3
  0
LWPOLYLINE
  5
AAF5E
330
1F
100
AcDbEntity
  8
Line - General Feature
100
AcDbPolyline
 90
        2
 70
     0
 43
0.0
 10
291222.95
 20
90987.15
 10
291223.7800000001
 20
90985.67
  0
LWPOLYLINE
  5
AAF5F
330
1F
100
AcDbEntity
  8
Line - Building - Outline
100
AcDbPolyline
 90
        3
 70
     0
 43
0.0
 10
291161.43
 20
90997.14999999999
 10
291165.0
 20
90992.89999999999
 10
291170.2
 20
90997.3
  0
LWPOLYLINE
  5
AAF60
330
1F
100
AcDbEntity
  8
Line - General Feature
100
AcDbPolyline
 90
        2
 70
     0
 43
0.0
 10
291176.65
 20
90995.31
 10
291175.8147810001
 20
90997.3
  0
LWPOLYLINE
  5
AAF61
330
1F
100
AcDbEntity
  8
Line - General Feature
100
AcDbPolyline
 90
        2
 70
     0
 43
0.0
 10
291189.5
 20
90990.35
 10
291200.23
 20
90977.96
  0
LWPOLYLINE
  5
AAF62
330
1F
100
AcDbEntity
  8
Line - General Feature
100
AcDbPolyline
 90
        2
 70
     0
 43
0.0
 10
291187.8400000001
 20
90988.79
 10
291186.3
 20
90980.95
  0
LWPOLYLINE
  5
AAF63
330
1F
100
AcDbEntity
  8
Line - General Feature
100
AcDbPolyline
 90
        2
 70
     0
 43
0.0
 10
291156.56
 20
90993.15
 10
291160.56
 20
90988.28000000001
  0
LWPOLYLINE
  5
AAF64
330
1F
100
AcDbEntity
  8
Line - General Feature
100
AcDbPolyline
 90
        2
 70
     0
 43
0.0
 10
291185.35
 20
90995.2
 10
291189.5
 20
90990.35
  0
LWPOLYLINE
  5
AAF65
330
1F
100
AcDbEntity
  8
Line - General Feature
100
AcDbPolyline
 90
        2
 70
     0
 43
0.0
 10
291187.8400000001
 20
90988.79
 10
291189.5
 20
90990.35
  0
LWPOLYLINE
  5
AAF66
330
1F
100
AcDbEntity
  8
Line - General Feature
100
AcDbPolyline
 90
        2
 70
     0
 43
0.0
 10
291204.74
 20
90995.85000000001
 10
291202.35
 20
90994.6
  0
LWPOLYLINE
  5
AAF67
330
1F
100
AcDbEntity
  8
Line - General Feature
100
AcDbPolyline
 90
        2
 70
     0
 43
0.0
 10
291210.6
 20
90990.33999999999
 10
291208.5
 20
90989.25000000001
  0
LWPOLYLINE
  5
AAF68
330
1F
100
AcDbEntity
  8
Line - General Feature
100
AcDbPolyline
 90
        2
 70
     0
 43
0.0
 10
291212.9000000001
 20
90991.54
 10
291210.6
 20
90990.33999999999
  0
LWPOLYLINE
  5
AAF69
330
1F
100
AcDbEntity
  8
Line - General Feature
100
AcDbPolyline
 90
        2
 70
     0
 43
0.0
 10
291210.6
 20
90990.33999999999
 10
291212.9000000001
 20
90986.01
  0
LWPOLYLINE
  5
AAF6A
330
1F
100
AcDbEntity
  8
Line - General Feature
100
AcDbPolyline
 90
        2
 70
     0
 43
0.0
 10
291212.9000000001
 20
90991.54
 10
291215.24
 20
90987.21000000001
  0
LWPOLYLINE
  5
AAF6B
330
1F
100
AcDbEntity
  8
Line - General Feature
100
AcDbPolyline
 90
        2
 70
     0
 43
0.0
 10
291214.97
 20
90992.61999999999
 10
291217.31
 20
90988.28000000001
  0
LWPOLYLINE
  5
AAF6C
330
1F
100
AcDbEntity
  8
Line - General Feature
100
AcDbPolyline
 90
        2
 70
     0
 43
0.0
 10
291219.2000000001
 20
90989.25000000001
 10
291216.97
 20
90993.61999999999
  0
LWPOLYLINE
  5
AAF6D
330
1F
100
AcDbEntity
  8
Line - General Feature
100
AcDbPolyline
 90
        4
 70
     0
 43
0.0
 10
291222.95
 20
90987.15
 10
291221.95
 20
90988.89999999999
 10
291221.4
 20
90989.95
 10
291220.05
 20
90993.05000000001
  0
LWPOLYLINE
  5
AAF6E
330
1F
100
AcDbEntity
  8
Line - Building - Outline
100
AcDbPolyline
 90
        2
 70
     0
 43
0.0
 10
291228.7
 20
90994.15
 10
291231.14
 20
90989.67
  0
LWPOLYLINE
  5
AAF6F
330
1F
100
AcDbEntity
  8
Line - General Feature
100
AcDbPolyline
 90
        4
 70
     0
 43
0.0
 10
291202.35
 20
90994.6
 10
291200.75
 20
90993.8
 10
291207.6
 20
90988.6
 10
291208.5
 20
90989.25000000001
  0
LWPOLYLINE
  5
AAF70
330
1F
100
AcDbEntity
  8
Line - General Feature
100
AcDbPolyline
 90
        2
 70
     0
 43
0.0
 10
291160.56
 20
90988.28000000001
 10
291176.65
 20
90995.31
  0
LWPOLYLINE
  5
AAF71
330
1F
100
AcDbEntity
  8
Line - General Feature
100
AcDbPolyline
 90
        2
 70
     0
 43
0.0
 10
291178.55
 20
90898.45
 10
291179.5525641
 20
90897.30000000001
  0
LWPOLYLINE
  5
AAF72
330
1F
100
AcDbEntity
  8
Line - Building - Division
100
AcDbPolyline
 90
        2
 70
     0
 43
0.0
 10
291247.0
 20
90974.977931
 10
291241.02
 20
90971.58
  0
LWPOLYLINE
  5
AAF73
330
1F
100
AcDbEntity
  8
Line - General Feature
100
AcDbPolyline
 90
        3
 70
     0
 43
0.0
 10
291247.0
 20
90954.0684211
 10
291239.75
 20
90955.89999999999
 10
291239.25
 20
90956.95
  0
LWPOLYLINE
  5
AAF74
330
1F
100
AcDbEntity
  8
Line - Building - Outline
100
AcDbPolyline
 90
        2
 70
     0
 43
0.0
 10
291247.0
 20
90976.628898
 10
291245.24
 20
90979.84
  0
LWPOLYLINE
  5
AAF75
330
1F
100
AcDbEntity
  8
Line - Building - Outline
100
AcDbPolyline
 90
        2
 70
     0
 43
0.0
 10
291242.86
 20
90984.18
 10
291240.43
 20
90988.61000000001
  0
LWPOLYLINE
  5
AAF76
330
1F
100
AcDbEntity
  8
Line - Building - Division
100
AcDbPolyline
 90
        2
 70
     0
 43
0.0
 10
291238.47
 20
90976.25999999999
 10
291245.24
 20
90979.84
  0
LWPOLYLINE
  5
AAF77
330
1F
100
AcDbEntity
  8
Line - Building - Outline
100
AcDbPolyline
 90
        2
 70
     0
 43
0.0
 10
291243.45
 20
90967.13000000001
 10
291245.96
 20
90962.54
  0
LWPOLYLINE
  5
AAF78
330
1F
100
AcDbEntity
  8
Line - General Feature
100
AcDbPolyline
 90
        3
 70
     0
 43
0.0
 10
291239.25
 20
90956.95
 10
291241.45
 20
90958.14999999999
 10
291240.62
 20
90959.66999999999
  0
LWPOLYLINE
  5
AAF79
330
1F
100
AcDbEntity
  8
Line - Building - Outline
100
AcDbPolyline
 90
        2
 70
     0
 43
0.0
 10
291176.57
 20
90978.50000000001
 10
291169.25
 20
90973.64999999999
  0
LWPOLYLINE
  5
AAF7A
330
1F
100
AcDbEntity
  8
Line - Building - Outline
100
AcDbPolyline
 90
        2
 70
     0
 43
0.0
 10
291169.25
 20
90973.64999999999
 10
291166.43
 20
90977.77
  0
LWPOLYLINE
  5
AAF7B
330
1F
100
AcDbEntity
  8
Line - General Feature
100
AcDbPolyline
 90
        2
 70
     0
 43
0.0
 10
291213.38
 20
90940.35000000001
 10
291207.11
 20
90946.4
  0
LWPOLYLINE
  5
AAF7C
330
1F
100
AcDbEntity
  8
Line - General Feature
100
AcDbPolyline
 90
        2
 70
     0
 43
0.0
 10
291187.5
 20
90956.44999999999
 10
291183.7800000001
 20
90960.72000000001
  0
LWPOLYLINE
  5
AAF7D
330
1F
100
AcDbEntity
  8
Line - General Feature
100
AcDbPolyline
 90
        4
 70
     0
 43
0.0
 10
291203.5900000001
 20
90961.66999999999
 10
291200.0
 20
90966.10000000001
 10
291195.0
 20
90972.1
 10
291186.3
 20
90980.95
  0
LWPOLYLINE
  5
AAF7E
330
1F
100
AcDbEntity
  8
Line - General Feature
100
AcDbPolyline
 90
        2
 70
     0
 43
0.0
 10
291163.8
 20
90970.1
 10
291161.95
 20
90974.55
  0
LWPOLYLINE
  5
AAF7F
330
1F
100
AcDbEntity
  8
Line - General Feature
100
AcDbPolyline
 90
        3
 70
     0
 43
0.0
 10
291169.38
 20
90966.14999999999
 10
291166.0
 20
90964.2
 10
291163.1
 20
90962.2
  0
LWPOLYLINE
  5
AAF80
330
1F
100
AcDbEntity
  8
Line - General Feature
100
AcDbPolyline
 90
        2
 70
     0
 43
0.0
 10
291175.48
 20
90970.11999999999
 10
291169.38
 20
90966.14999999999
  0
LWPOLYLINE
  5
AAF81
330
1F
100
AcDbEntity
  8
Line - General Feature
100
AcDbPolyline
 90
        2
 70
     0
 43
0.0
 10
291171.9000000001
 20
90932.85000000001
 10
291176.75
 20
90927.05
  0
LWPOLYLINE
  5
AAF82
330
1F
100
AcDbEntity
  8
Line - Building - Outline
100
AcDbPolyline
 90
        4
 70
     0
 43
0.0
 10
291200.23
 20
90977.96
 10
291196.35
 20
90975.19999999999
 10
291201.5
 20
90967.95
 10
291205.74
 20
90970.77
  0
LWPOLYLINE
  5
AAF83
330
1F
100
AcDbEntity
  8
Line - Road Or Track - Public
100
AcDbPolyline
 90
      131
 70
     0
 43
0.0
 10
291176.0
 20
90931.14999999999
 10
291173.95
 20
90933.6
 10
291166.5
 20
90942.24999999999
 10
291165.45
 20
90943.55
 10
291164.35
 20
90945.0
 10
291164.05
 20
90945.60000000001
 10
291163.6
 20
90946.35
 10
291163.5
 20
90946.60000000001
 10
291163.2
 20
90947.1
 10
291163.1
 20
90947.35000000001
 10
291162.8
 20
90947.85000000001
 10
291162.6
 20
90948.35000000001
 10
291162.5
 20
90948.55
 10
291162.3
 20
90949.0
 10
291162.1
 20
90949.5
 10
291161.85
 20
90950.0
 10
291161.65
 20
90950.45
 10
291161.4500000001
 20
90950.80000000001
 10
291161.3
 20
90951.10000000001
 10
291161.1
 20
90951.45
 10
291160.95
 20
90951.8
 10
291160.75
 20
90952.14999999999
 10
291160.55
 20
90952.54999999999
 10
291160.35
 20
90952.9
 10
291160.1
 20
90953.3
 10
291159.8
 20
90953.9
 10
291158.8
 20
90955.50000000001
 10
291158.4
 20
90956.2
 10
291158.15
 20
90956.55
 10
291157.95
 20
90956.95
 10
291157.7
 20
90957.30000000001
 10
291157.45
 20
90957.69999999999
 10
291157.1500000001
 20
90958.1
 10
291156.9
 20
90958.5
 10
291156.55
 20
90958.95
 10
291156.25
 20
90959.4
 10
291155.85
 20
90959.9
 10
291155.6500000001
 20
90960.19999999999
 10
291155.4
 20
90960.45
 10
291155.25
 20
90960.64999999999
 10
291155.05
 20
90960.8
 10
291154.8
 20
90961.10000000001
 10
291154.5
 20
90961.35
 10
291154.3
 20
90961.49999999999
 10
291154.0
 20
90961.7
 10
291153.9000000001
 20
90961.8
 10
291153.6
 20
90961.89999999999
 10
291153.1
 20
90962.10000000001
 10
291152.85
 20
90962.14999999999
 10
291152.55
 20
90962.14999999999
 10
291152.3
 20
90962.2
 10
291151.2
 20
90962.2
 10
291150.75
 20
90962.14999999999
 10
291150.3
 20
90962.2
 10
291149.85
 20
90962.3
 10
291147.9
 20
90966.69999999999
 10
291161.4500000001
 20
90972.0
 10
291163.05
 20
90967.60000000001
 10
291162.95
 20
90967.54999999999
 10
291162.85
 20
90967.45
 10
291162.75
 20
90967.4
 10
291162.55
 20
90967.19999999999
 10
291162.3
 20
90967.0
 10
291161.8
 20
90966.5
 10
291161.75
 20
90966.4
 10
291161.65
 20
90966.30000000001
 10
291161.6
 20
90966.19999999999
 10
291161.4500000001
 20
90966.0
 10
291161.25
 20
90965.6
 10
291161.2
 20
90965.45
 10
291161.1500000001
 20
90965.35000000001
 10
291161.1
 20
90965.19999999999
 10
291161.0
 20
90965.0
 10
291160.95
 20
90964.80000000001
 10
291160.9
 20
90964.65
 10
291160.85
 20
90964.45000000001
 10
291160.8
 20
90964.15
 10
291160.75
 20
90963.75
 10
291160.7
 20
90962.89999999999
 10
291160.75
 20
90962.50000000001
 10
291160.8
 20
90962.25
 10
291160.9
 20
90961.85
 10
291161.05
 20
90961.4
 10
291161.1500000001
 20
90961.3
 10
291161.2
 20
90961.14999999999
 10
291161.55
 20
90960.45
 10
291161.7000000001
 20
90960.3
 10
291161.8
 20
90960.14999999999
 10
291163.85
 20
90956.95
 10
291166.55
 20
90952.60000000001
 10
291167.25
 20
90950.85
 10
291167.85
 20
90949.39999999999
 10
291168.7
 20
90947.7
 10
291169.6
 20
90946.44999999999
 10
291174.2
 20
90941.15
 10
291175.4000000001
 20
90939.89999999999
 10
291176.45
 20
90938.9
 10
291176.6
 20
90938.8
 10
291176.7000000001
 20
90938.75
 10
291176.85
 20
90938.64999999999
 10
291176.95
 20
90938.60000000001
 10
291177.1
 20
90938.49999999999
 10
291177.2
 20
90938.44999999999
 10
291177.35
 20
90938.35
 10
291177.5
 20
90938.3
 10
291177.6
 20
90938.25
 10
291177.75
 20
90938.14999999999
 10
291177.9000000001
 20
90938.10000000001
 10
291178.0
 20
90938.05000000001
 10
291178.15
 20
90938.0
 10
291178.3
 20
90937.9
 10
291178.4000000001
 20
90937.85
 10
291178.7
 20
90937.75
 10
291178.8
 20
90937.70000000001
 10
291179.2500000001
 20
90937.55000000001
 10
291179.35
 20
90937.5
 10
291179.9500000001
 20
90937.3
 10
291180.1500000001
 20
90937.25
 10
291180.3
 20
90937.25
 10
291180.45
 20
90937.19999999999
 10
291180.6500000001
 20
90937.14999999999
 10
291180.8
 20
90937.10000000001
 10
291180.95
 20
90937.10000000001
 10
291181.1500000001
 20
90937.04999999999
 10
291181.3
 20
90937.04999999999
 10
291181.45
 20
90937.0
 10
291181.65
 20
90936.95
 10
291181.8
 20
90936.95
 10
291182.0
 20
90936.9
 10
291182.3
 20
90936.9
 10
291182.5
 20
90936.85
  0
LWPOLYLINE
  5
AAF84
330
1F
100
AcDbEntity
  8
Line - General Feature
100
AcDbPolyline
 90
        7
 70
     0
 43
0.0
 10
291163.1
 20
90962.2
 10
291165.85
 20
90957.2
 10
291168.35
 20
90952.9
 10
291171.45
 20
90947.44999999999
 10
291176.45
 20
90941.80000000001
 10
291188.1
 20
90941.25
 10
291189.36
 20
90942.34
  0
LWPOLYLINE
  5
AAF85
330
1F
100
AcDbEntity
  8
Line - Building - Division
100
AcDbPolyline
 90
        2
 70
     0
 43
0.0
 10
291177.82
 20
90956.02000000001
 10
291183.23
 20
90949.57
  0
LWPOLYLINE
  5
AAF86
330
1F
100
AcDbEntity
  8
Line - Building - Outline
100
AcDbPolyline
 90
        2
 70
     0
 43
0.0
 10
291186.0300000001
 20
90962.69000000001
 10
291189.73
 20
90958.48
  0
LWPOLYLINE
  5
AAF87
330
1F
100
AcDbEntity
  8
Line - Building - Outline
100
AcDbPolyline
 90
        4
 70
     0
 43
0.0
 10
291205.74
 20
90970.77
 10
291209.75
 20
90973.64999999999
 10
291204.45
 20
90980.95
 10
291200.23
 20
90977.96
  0
LWPOLYLINE
  5
AAF88
330
1F
100
AcDbEntity
  8
Line - Network Or Polygon Closing Geometry - Inferred Property Closing Link
100
AcDbPolyline
 90
        2
 70
     0
 43
0.0
 10
291147.08
 20
90932.92999999999
 10
291162.5900000001
 20
90944.59
  0
LWPOLYLINE
  5
AAF89
330
1F
100
AcDbEntity
  8
Line - General Feature
100
AcDbPolyline
 90
        2
 70
     0
 43
0.0
 10
291160.23
 20
90932.96999999999
 10
291167.1
 20
90938.64999999999
  0
LWPOLYLINE
  5
AAF8A
330
1F
100
AcDbEntity
  8
Line - Building - Division
100
AcDbPolyline
 90
        2
 70
     0
 43
0.0
 10
291188.8300000001
 20
90967.52999999999
 10
291194.57
 20
90961.03000000001
  0
LWPOLYLINE
  5
AAF8B
330
1F
100
AcDbEntity
  8
Line - General Feature
100
AcDbPolyline
 90
        2
 70
     0
 43
0.0
 10
291173.85
 20
90972.65
 10
291175.48
 20
90970.11999999999
  0
LWPOLYLINE
  5
AAF8C
330
1F
100
AcDbEntity
  8
Line - General Feature
100
AcDbPolyline
 90
        3
 70
     0
 43
0.0
 10
291163.8
 20
90970.1
 10
291164.9500000001
 20
90966.95
 10
291163.1
 20
90962.2
  0
LWPOLYLINE
  5
AAF8D
330
1F
100
AcDbEntity
  8
Line - General Feature
100
AcDbPolyline
 90
        2
 70
     0
 43
0.0
 10
291194.57
 20
90961.03000000001
 10
291201.5100000001
 20
90952.94
  0
LWPOLYLINE
  5
AAF8E
330
1F
100
AcDbEntity
  8
Line - Network Or Polygon Closing Geometry - Polygon Closing Link
100
AcDbPolyline
 90
        2
 70
     0
 43
0.0
 10
291176.0
 20
90931.14999999999
 10
291182.5
 20
90936.85
  0
LWPOLYLINE
  5
AAF8F
330
1F
100
AcDbEntity
  8
Line - General Feature
100
AcDbPolyline
 90
        2
 70
     0
 43
0.0
 10
291205.74
 20
90970.77
 10
291207.85
 20
90965.65
  0
LWPOLYLINE
  5
AAF90
330
1F
100
AcDbEntity
  8
Line - Building - Division
100
AcDbPolyline
 90
        2
 70
     0
 43
0.0
 10
291200.23
 20
90977.96
 10
291205.74
 20
90970.77
  0
LWPOLYLINE
  5
AAF91
330
1F
100
AcDbEntity
  8
Line - General Feature
100
AcDbPolyline
 90
        4
 70
     0
 43
0.0
 10
291206.242
 20
90982.573
 10
291209.95
 20
90978.6
 10
291219.35
 20
90968.45
 10
291220.19
 20
90967.54999999999
  0
LWPOLYLINE
  5
AAF92
330
1F
100
AcDbEntity
  8
Line - General Feature
100
AcDbPolyline
 90
        2
 70
     0
 43
0.0
 10
291169.38
 20
90966.14999999999
 10
291176.2
 20
90957.965
  0
LWPOLYLINE
  5
AAF93
330
1F
100
AcDbEntity
  8
Line - General Feature
100
AcDbPolyline
 90
        3
 70
     0
 43
0.0
 10
291162.5900000001
 20
90944.59
 10
291163.55
 20
90942.89999999999
 10
291167.1
 20
90938.64999999999
  0
LWPOLYLINE
  5
AAF94
330
1F
100
AcDbEntity
  8
Line - General Feature
100
AcDbPolyline
 90
        2
 70
     0
 43
0.0
 10
291175.48
 20
90970.11999999999
 10
291178.083
 20
90967.17199999998
  0
LWPOLYLINE
  5
AAF95
330
1F
100
AcDbEntity
  8
Line - Network Or Polygon Closing Geometry - Inferred Property Closing Link
100
AcDbPolyline
 90
        2
 70
     0
 43
0.0
 10
291166.8010000001
 20
90928.50699999999
 10
291171.9000000001
 20
90932.85000000001
  0
LWPOLYLINE
  5
AAF96
330
1F
100
AcDbEntity
  8
Line - Building - Outline
100
AcDbPolyline
 90
        2
 70
     0
 43
0.0
 10
291171.0810000001
 20
90970.88600000001
 10
291169.25
 20
90973.64999999999
  0
LWPOLYLINE
  5
AAF97
330
1F
100
AcDbEntity
  8
Line - General Feature
100
AcDbPolyline
 90
        2
 70
     0
 43
0.0
 10
291182.919
 20
90978.72699999999
 10
291180.1500000001
 20
90976.9
  0
LWPOLYLINE
  5
AAF98
330
1F
100
AcDbEntity
  8
Line - General Feature
100
AcDbPolyline
 90
        2
 70
     0
 43
0.0
 10
291233.39
 20
90931.91
 10
291231.06
 20
90929.33999999999
  0
LWPOLYLINE
  5
AAF99
330
1F
100
AcDbEntity
  8
Line - General Feature
100
AcDbPolyline
 90
        5
 70
     0
 43
0.0
 10
291215.8
 20
90968.10000000001
 10
291212.05
 20
90964.6
 10
291213.85
 20
90962.7
 10
291217.55
 20
90966.25000000001
 10
291215.8
 20
90968.10000000001
  0
LWPOLYLINE
  5
AAF9A
330
1F
100
AcDbEntity
  8
Line - General Feature
100
AcDbPolyline
 90
        4
 70
     0
 43
0.0
 10
291201.5100000001
 20
90952.94
 10
291202.6500000001
 20
90954.0
 10
291201.7
 20
90959.9
 10
291203.5900000001
 20
90961.66999999999
  0
LWPOLYLINE
  5
AAF9B
330
1F
100
AcDbEntity
  8
Line - Building - Outline
100
AcDbPolyline
 90
        4
 70
     0
 43
0.0
 10
291224.16
 20
90950.69
 10
291221.25
 20
90946.7
 10
291228.3
 20
90941.6
 10
291231.15
 20
90945.55000000001
  0
LWPOLYLINE
  5
AAF9C
330
1F
100
AcDbEntity
  8
Line - Road Or Track - Public
100
AcDbPolyline
 90
      105
 70
     0
 43
0.0
 10
291182.5
 20
90936.85
 10
291182.85
 20
90936.85
 10
291183.0
 20
90936.8
 10
291185.25
 20
90936.8
 10
291185.35
 20
90936.85
 10
291185.6500000001
 20
90936.95
 10
291185.75
 20
90937.0
 10
291186.05
 20
90937.10000000001
 10
291186.15
 20
90937.14999999999
 10
291186.3
 20
90937.25
 10
291186.45
 20
90937.3
 10
291186.55
 20
90937.35
 10
291186.7
 20
90937.4
 10
291186.8
 20
90937.45
 10
291186.95
 20
90937.55000000001
 10
291187.1
 20
90937.60000000001
 10
291187.2000000001
 20
90937.64999999999
 10
291187.35
 20
90937.75
 10
291187.4500000001
 20
90937.8
 10
291187.6
 20
90937.9
 10
291187.7
 20
90937.95
 10
291187.85
 20
90938.0
 10
291187.95
 20
90938.10000000001
 10
291188.05
 20
90938.14999999999
 10
291188.2
 20
90938.25
 10
291188.3
 20
90938.3
 10
291188.4500000001
 20
90938.4
 10
291188.55
 20
90938.49999999999
 10
291188.6500000001
 20
90938.55000000001
 10
291188.8
 20
90938.64999999999
 10
291188.9
 20
90938.75
 10
291189.0
 20
90938.8
 10
291189.1500000001
 20
90938.9
 10
291189.35
 20
90939.10000000001
 10
291189.4500000001
 20
90939.14999999999
 10
291189.6
 20
90939.25
 10
291190.0
 20
90939.64999999998
 10
291190.1
 20
90939.7
 10
291190.25
 20
90939.8
 10
291190.85
 20
90940.39999999999
 10
291190.95
 20
90940.55
 10
291191.15
 20
90940.75
 10
291196.05
 20
90945.25
 10
291200.8
 20
90949.69999999999
 10
291203.55
 20
90952.10000000001
 10
291203.85
 20
90952.45
 10
291204.1500000001
 20
90952.85
 10
291204.35
 20
90953.10000000001
 10
291204.7
 20
90953.8
 10
291204.9000000001
 20
90954.3
 10
291205.0
 20
90954.6
 10
291205.05
 20
90954.89999999999
 10
291205.15
 20
90955.3
 10
291205.15
 20
90956.5
 10
291205.1
 20
90956.7
 10
291205.0
 20
90957.2
 10
291204.8
 20
90958.0
 10
291204.7
 20
90958.24999999999
 10
291204.6
 20
90958.55
 10
291204.5
 20
90958.75000000001
 10
291204.4
 20
90959.0
 10
291204.3
 20
90959.14999999999
 10
291204.2
 20
90959.35
 10
291207.65
 20
90962.75
 10
291217.1
 20
90953.14999999999
 10
291213.75
 20
90949.65
 10
291213.2000000001
 20
90949.65
 10
291212.35
 20
90950.24999999999
 10
291212.2
 20
90950.24999999999
 10
291212.05
 20
90950.30000000001
 10
291211.9
 20
90950.30000000001
 10
291211.5
 20
90950.39999999999
 10
291211.15
 20
90950.39999999999
 10
291210.8
 20
90950.45
 10
291210.1
 20
90950.45
 10
291210.0
 20
90950.39999999999
 10
291209.85
 20
90950.39999999999
 10
291209.75
 20
90950.35000000001
 10
291209.45
 20
90950.30000000001
 10
291209.0
 20
90950.15
 10
291208.85
 20
90950.05
 10
291208.55
 20
90949.89999999999
 10
291208.4000000001
 20
90949.80000000001
 10
291208.3
 20
90949.74999999999
 10
291208.0
 20
90949.55
 10
291207.8
 20
90949.39999999999
 10
291207.55
 20
90949.15
 10
291207.4
 20
90949.05
 10
291207.2
 20
90948.79999999999
 10
291207.0
 20
90948.6
 10
291206.9000000001
 20
90948.25
 10
291200.0
 20
90942.15
 10
291192.5
 20
90935.35000000001
 10
291192.2
 20
90935.05
 10
291191.95
 20
90934.74999999999
 10
291191.45
 20
90934.05
 10
291191.05
 20
90933.44999999999
 10
291190.85
 20
90933.1
 10
291190.7000000001
 20
90932.7
 10
291190.5
 20
90932.35000000001
 10
291190.35
 20
90932.0
 10
291190.05
 20
90931.0
 10
291189.95
 20
90930.64999999999
 10
291189.75
 20
90929.85
 10
291189.7
 20
90929.4
  0
LWPOLYLINE
  5
AAF9D
330
1F
100
AcDbEntity
  8
Line - General Feature
100
AcDbPolyline
 90
        2
 70
     0
 43
0.0
 10
291203.5900000001
 20
90961.66999999999
 10
291207.85
 20
90965.65
  0
LWPOLYLINE
  5
AAF9E
330
1F
100
AcDbEntity
  8
Line - General Feature
100
AcDbPolyline
 90
        2
 70
     0
 43
0.0
 10
291241.02
 20
90971.58
 10
291235.75
 20
90968.59
  0
LWPOLYLINE
  5
AAF9F
330
1F
100
AcDbEntity
  8
Line - General Feature
100
AcDbPolyline
 90
        2
 70
     0
 43
0.0
 10
291231.0
 20
90972.30000000001
 10
291238.47
 20
90976.25999999999
  0
LWPOLYLINE
  5
AAFA0
330
1F
100
AcDbEntity
  8
Line - General Feature
100
AcDbPolyline
 90
        2
 70
     0
 43
0.0
 10
291231.0
 20
90972.30000000001
 10
291232.75
 20
90969.0
  0
LWPOLYLINE
  5
AAFA1
330
1F
100
AcDbEntity
  8
Line - General Feature
100
AcDbPolyline
 90
        2
 70
     0
 43
0.0
 10
291214.97
 20
90949.12
 10
291227.0900000001
 20
90937.78999999999
  0
LWPOLYLINE
  5
AAFA2
330
1F
100
AcDbEntity
  8
Line - Building - Division
100
AcDbPolyline
 90
        2
 70
     0
 43
0.0
 10
291231.15
 20
90945.55000000001
 10
291224.16
 20
90950.69
  0
LWPOLYLINE
  5
AAFA3
330
1F
100
AcDbEntity
  8
Line - General Feature
100
AcDbPolyline
 90
        2
 70
     0
 43
0.0
 10
291233.65
 20
90967.4
 10
291234.35
 20
90966.14999999999
  0
LWPOLYLINE
  5
AAFA4
330
1F
100
AcDbEntity
  8
Line - Building - Outline
100
AcDbPolyline
 90
        2
 70
     0
 43
0.0
 10
291187.061
 20
90969.44
 10
291188.8300000001
 20
90967.52999999999
  0
LWPOLYLINE
  5
AAFA5
330
1F
100
AcDbEntity
  8
Line - General Feature
100
AcDbPolyline
 90
        3
 70
     0
 43
0.0
 10
291217.2410000001
 20
90956.22
 10
291219.65
 20
90953.8
 10
291219.5
 20
90953.64999999999
  0
LWPOLYLINE
  5
AAFA6
330
1F
100
AcDbEntity
  8
Line - General Feature
100
AcDbPolyline
 90
        2
 70
     0
 43
0.0
 10
291237.7000000001
 20
90959.85
 10
291238.43
 20
90958.49000000001
  0
LWPOLYLINE
  5
AAFA7
330
1F
100
AcDbEntity
  8
Line - General Feature
100
AcDbPolyline
 90
        2
 70
     0
 43
0.0
 10
291220.97
 20
90982.33999999999
 10
291221.7
 20
90981.0
  0
LWPOLYLINE
  5
AAFA8
330
1F
100
AcDbEntity
  8
Line - General Feature
100
AcDbPolyline
 90
        2
 70
     0
 43
0.0
 10
291232.75
 20
90969.0
 10
291233.65
 20
90967.4
  0
LWPOLYLINE
  5
AAFA9
330
1F
100
AcDbEntity
  8
Line - General Feature
100
AcDbPolyline
 90
        2
 70
     0
 43
0.0
 10
291229.55
 20
90975.04999999999
 10
291231.0
 20
90972.30000000001
  0
LWPOLYLINE
  5
AAFAA
330
1F
100
AcDbEntity
  8
Line - General Feature
100
AcDbPolyline
 90
        3
 70
     0
 43
0.0
 10
291229.55
 20
90975.04999999999
 10
291231.6500000001
 20
90976.2
 10
291230.87
 20
90977.61
  0
LWPOLYLINE
  5
AAFAB
330
1F
100
AcDbEntity
  8
Line - Building - Outline
100
AcDbPolyline
 90
        2
 70
     0
 43
0.0
 10
291238.47
 20
90976.25999999999
 10
291241.02
 20
90971.58
  0
LWPOLYLINE
  5
AAFAC
330
1F
100
AcDbEntity
  8
Line - General Feature
100
AcDbPolyline
 90
        2
 70
     0
 43
0.0
 10
291238.74
 20
90937.85999999999
 10
291236.28
 20
90935.12
  0
LWPOLYLINE
  5
AAFAD
330
1F
100
AcDbEntity
  8
Line - General Feature
100
AcDbPolyline
 90
        4
 70
     0
 43
0.0
 10
291220.19
 20
90967.54999999999
 10
291234.25
 20
90952.4
 10
291241.6500000001
 20
90944.4
 10
291243.18
 20
90942.78
  0
LWPOLYLINE
  5
AAFAE
330
1F
100
AcDbEntity
  8
Line - General Feature
100
AcDbPolyline
 90
        2
 70
     0
 43
0.0
 10
291235.96
 20
90963.11999999999
 10
291243.45
 20
90967.13000000001
  0
LWPOLYLINE
  5
AAFAF
330
1F
100
AcDbEntity
  8
Line - General Feature
100
AcDbPolyline
 90
        5
 70
     0
 43
0.0
 10
291221.7
 20
90981.0
 10
291222.0
 20
90980.1
 10
291224.1
 20
90981.14999999999
 10
291238.3
 20
90954.64999999999
 10
291247.0
 20
90952.6450617
  0
LWPOLYLINE
  5
AAFB0
330
1F
100
AcDbEntity
  8
Line - General Feature
100
AcDbPolyline
 90
        2
 70
     0
 43
0.0
 10
291240.62
 20
90959.66999999999
 10
291238.43
 20
90958.49000000001
  0
LWPOLYLINE
  5
AAFB1
330
1F
100
AcDbEntity
  8
Line - Building - Outline
100
AcDbPolyline
 90
        6
 70
     0
 43
0.0
 10
291231.15
 20
90945.55000000001
 10
291234.144
 20
90943.38999999999
 10
291236.9940000001
 20
90947.34
 10
291234.0
 20
90949.5
 10
291227.0
 20
90954.6
 10
291224.16
 20
90950.69
  0
LWPOLYLINE
  5
AAFB2
330
1F
100
AcDbEntity
  8
Line - Building - Outline
100
AcDbPolyline
 90
        2
 70
     0
 43
0.0
 10
291169.4310000001
 20
90907.032
 10
291167.56
 20
90909.25999999999
  0
LWPOLYLINE
  5
AAFB3
330
1F
100
AcDbEntity
  8
Line - General Feature
100
AcDbPolyline
 90
        3
 70
     0
 43
0.0
 10
291247.0
 20
90942.7626
 10
291245.67
 20
90941.52000000001
 10
291244.97
 20
90940.87
  0
LWPOLYLINE
  5
AAFB4
330
1F
100
AcDbEntity
  8
Line - General Feature
100
AcDbPolyline
 90
        2
 70
     0
 43
0.0
 10
291212.84
 20
90960.64
 10
291217.2410000001
 20
90956.22
  0
LWPOLYLINE
  5
AAFB5
330
1F
100
AcDbEntity
  8
Line - General Feature
100
AcDbPolyline
 90
        2
 70
     0
 43
0.0
 10
291207.85
 20
90965.65
 10
291212.84
 20
90960.64
  0
LWPOLYLINE
  5
AAFB6
330
1F
100
AcDbEntity
  8
Line - Building - Outline
100
AcDbPolyline
 90
        2
 70
     0
 43
0.0
 10
291161.3036842
 20
90997.3
 10
291161.43
 20
90997.14999999999
  0
LWPOLYLINE
  5
AAFB7
330
1F
100
AcDbEntity
  8
Line - Building - Outline
100
AcDbPolyline
 90
        3
 70
     0
 43
0.0
 10
291231.5433962
 20
90997.3
 10
291232.2000000001
 20
90996.1
 10
291228.7
 20
90994.15
  0
LWPOLYLINE
  5
AAFB8
330
1F
100
AcDbEntity
  8
Line - General Feature
100
AcDbPolyline
 90
        2
 70
     0
 43
0.0
 10
291177.9000000001
 20
90985.40600000001
 10
291187.8400000001
 20
90988.79
  0
LWPOLYLINE
  5
AAFB9
330
1F
100
AcDbEntity
  8
Line - General Feature
100
AcDbPolyline
 90
        2
 70
     0
 43
0.0
 10
291159.25
 20
90950.45
 10
291162.5900000001
 20
90944.59
  0
LWPOLYLINE
  5
AAFBA
330
1F
100
AcDbEntity
  8
Line - General Feature
100
AcDbPolyline
 90
        3
 70
     0
 43
0.0
 10
291149.0800000001
 20
90960.78999999999
 10
291153.4000000001
 20
90959.55
 10
291155.4
 20
90956.7
  0
LWPOLYLINE
  5
AAFBB
330
1F
100
AcDbEntity
  8
Line - Building - Outline
100
AcDbPolyline
 90
        6
 70
     0
 43
0.0
 10
291177.82
 20
90956.02000000001
 10
291171.85
 20
90951.10000000001
 10
291176.98
 20
90944.97
 10
291178.9500000001
 20
90946.64999999999
 10
291179.2500000001
 20
90946.35
 10
291183.23
 20
90949.57
  0
LWPOLYLINE
  5
AAFBC
330
1F
100
AcDbEntity
  8
Line - Building - Outline
100
AcDbPolyline
 90
        3
 70
     0
 43
0.0
 10
291189.73
 20
90958.48
 10
291190.5
 20
90957.6
 10
291194.57
 20
90961.03000000001
  0
LWPOLYLINE
  5
AAFBD
330
1F
100
AcDbEntity
  8
Line - General Feature
100
AcDbPolyline
 90
        3
 70
     0
 43
0.0
 10
291181.4642857001
 20
90997.3
 10
291176.85
 20
90995.39999999999
 10
291176.65
 20
90995.31
  0
LWPOLYLINE
  5
AAFBE
330
1F
100
AcDbEntity
  8
Line - General Feature
100
AcDbPolyline
 90
        5
 70
     0
 43
0.0
 10
291153.05
 20
90978.85000000001
 10
291150.7
 20
90977.85000000001
 10
291152.6500000001
 20
90973.30000000001
 10
291155.0
 20
90974.30000000001
 10
291153.05
 20
90978.85000000001
  0
LWPOLYLINE
  5
AAFBF
330
1F
100
AcDbEntity
  8
Line - General Feature
100
AcDbPolyline
 90
        2
 70
     0
 43
0.0
 10
291183.23
 20
90949.57
 10
291189.36
 20
90942.34
  0
LWPOLYLINE
  5
AAFC0
330
1F
100
AcDbEntity
  8
Line - General Feature
100
AcDbPolyline
 90
        2
 70
     0
 43
0.0
 10
291189.73
 20
90958.48
 10
291187.5
 20
90956.44999999999
  0
LWPOLYLINE
  5
AAFC1
330
1F
100
AcDbEntity
  8
Line - General Feature
100
AcDbPolyline
 90
        2
 70
     0
 43
0.0
 10
291147.0
 20
90952.13825910001
 10
291147.2
 20
90952.25000000001
  0
LWPOLYLINE
  5
AAFC2
330
1F
100
AcDbEntity
  8
Line - Building - Outline
100
AcDbPolyline
 90
        4
 70
     0
 43
0.0
 10
291160.23
 20
90932.96999999999
 10
291163.35
 20
90929.19999999999
 10
291156.8
 20
90923.64999999999
 10
291153.62
 20
90927.52
  0
LWPOLYLINE
  5
AAFC3
330
1F
100
AcDbEntity
  8
Line - General Feature
100
AcDbPolyline
 90
        2
 70
     0
 43
0.0
 10
291187.5
 20
90956.44999999999
 10
291195.37
 20
90947.54
  0
LWPOLYLINE
  5
AAFC4
330
1F
100
AcDbEntity
  8
Line - General Feature
100
AcDbPolyline
 90
        2
 70
     0
 43
0.0
 10
291161.95
 20
90974.55
 10
291153.049
 20
90970.97900000001
  0
LWPOLYLINE
  5
AAFC5
330
1F
100
AcDbEntity
  8
Line - Building - Outline
100
AcDbPolyline
 90
        3
 70
     0
 43
0.0
 10
291171.0810000001
 20
90970.88600000001
 10
291167.65
 20
90968.7
 10
291169.38
 20
90966.14999999999
  0
LWPOLYLINE
  5
AAFC6
330
1F
100
AcDbEntity
  8
Line - Building - Outline
100
AcDbPolyline
 90
        3
 70
     0
 43
0.0
 10
291151.67
 20
90945.52999999999
 10
291148.75
 20
90949.85000000001
 10
291147.0
 20
90948.7038732
  0
LWPOLYLINE
  5
AAFC7
330
1F
100
AcDbEntity
  8
Line - General Feature
100
AcDbPolyline
 90
        2
 70
     0
 43
0.0
 10
291157.4
 20
90920.5
 10
291166.8010000001
 20
90928.50699999999
  0
LWPOLYLINE
  5
AAFC8
330
1F
100
AcDbEntity
  8
Line - General Feature
100
AcDbPolyline
 90
        2
 70
     0
 43
0.0
 10
291149.687
 20
90924.21300000001
 10
291153.62
 20
90927.52
  0
LWPOLYLINE
  5
AAFC9
330
1F
100
AcDbEntity
  8
Line - Building - Outline
100
AcDbPolyline
 90
        2
 70
     0
 43
0.0
 10
291150.85
 20
90916.05000000001
 10
291151.45
 20
90915.35
  0
LWPOLYLINE
  5
AAFCA
330
1F
100
AcDbEntity
  8
Line - Building - Outline
100
AcDbPolyline
 90
        2
 70
     0
 43
0.0
 10
291178.408
 20
90975.72500000001
 10
291173.85
 20
90972.65
  0
LWPOLYLINE
  5
AAFCB
330
1F
100
AcDbEntity
  8
Line - Building - Outline
100
AcDbPolyline
 90
        8
 70
     0
 43
0.0
 10
291191.1
 20
90977.85000000001
 10
291193.35
 20
90974.60000000001
 10
291195.0
 20
90975.8
 10
291192.65
 20
90979.0
 10
291191.106
 20
90981.102
 10
291191.096
 20
90981.09500000001
 10
291189.614
 20
90979.99599999999
 10
291191.1
 20
90977.85000000001
  0
LWPOLYLINE
  5
AAFCC
330
1F
100
AcDbEntity
  8
Line - General Feature
100
AcDbPolyline
 90
        2
 70
     0
 43
0.0
 10
291148.7970000001
 20
90981.22700000001
 10
291153.049
 20
90970.97900000001
  0
LWPOLYLINE
  5
AAFCD
330
1F
100
AcDbEntity
  8
Line - Building - Division
100
AcDbPolyline
 90
        2
 70
     0
 43
0.0
 10
291173.85
 20
90972.65
 10
291171.0810000001
 20
90970.88600000001
  0
LWPOLYLINE
  5
AAFCE
330
1F
100
AcDbEntity
  8
Line - Building - Outline
100
AcDbPolyline
 90
        2
 70
     0
 43
0.0
 10
291185.6500000001
 20
90980.52199999999
 10
291182.919
 20
90978.72699999999
  0
LWPOLYLINE
  5
AAFCF
330
1F
100
AcDbEntity
  8
Line - General Feature
100
AcDbPolyline
 90
        2
 70
     0
 43
0.0
 10
291244.97
 20
90940.87
 10
291247.0
 20
90938.7205882
  0
LWPOLYLINE
  5
AAFD0
330
1F
100
AcDbEntity
  8
Line - Building - Outline
100
AcDbPolyline
 90
        6
 70
     0
 43
0.0
 10
291247.0
 20
90979.1492593
 10
291246.31
 20
90980.41
 10
291243.94
 20
90984.77
 10
291241.52
 20
90989.19999999999
 10
291238.95
 20
90993.91999999999
 10
291237.1098633
 20
90997.3
  0
LWPOLYLINE
  5
AAFD1
330
1F
100
AcDbEntity
  8
Line - Building - Outline
100
AcDbPolyline
 90
        2
 70
     0
 43
0.0
 10
291245.24
 20
90979.84
 10
291242.86
 20
90984.18
  0
LWPOLYLINE
  5
AAFD2
330
1F
100
AcDbEntity
  8
Line - Building - Outline
100
AcDbPolyline
 90
        2
 70
     0
 43
0.0
 10
291240.43
 20
90988.61000000001
 10
291237.85
 20
90993.32
  0
LWPOLYLINE
  5
AAFD3
330
1F
100
AcDbEntity
  8
Line - General Feature
100
AcDbPolyline
 90
        4
 70
     0
 43
0.0
 10
291247.0
 20
90989.5738298
 10
291245.93
 20
90991.60000000001
 10
291243.42
 20
90996.35000000001
 10
291242.920274
 20
90997.3
  0
LWPOLYLINE
  5
AAFD4
330
1F
100
AcDbEntity
  8
Line - General Feature
100
AcDbPolyline
 90
        3
 70
     0
 43
0.0
 10
291234.35
 20
90966.14999999999
 10
291236.4500000001
 20
90967.3
 10
291235.75
 20
90968.59
  0
LWPOLYLINE
  5
AAFD5
330
1F
100
AcDbEntity
  8
Line - General Feature
100
AcDbPolyline
 90
        2
 70
     0
 43
0.0
 10
291238.43
 20
90958.49000000001
 10
291239.25
 20
90956.95
  0
LWPOLYLINE
  5
AAFD6
330
1F
100
AcDbEntity
  8
Line - General Feature
100
AcDbPolyline
 90
        3
 70
     0
 43
0.0
 10
291240.62
 20
90959.66999999999
 10
291239.9
 20
90961.0
 10
291237.7000000001
 20
90959.85
  0
LWPOLYLINE
  5
AAFD7
330
1F
100
AcDbEntity
  8
Line - General Feature
100
AcDbPolyline
 90
        2
 70
     0
 43
0.0
 10
291220.19
 20
90967.54999999999
 10
291212.84
 20
90960.64
  0
LWPOLYLINE
  5
AAFD8
330
1F
100
AcDbEntity
  8
Line - Building - Division
100
AcDbPolyline
 90
        2
 70
     0
 43
0.0
 10
291236.1500000001
 20
90980.5
 10
291242.86
 20
90984.18
  0
LWPOLYLINE
  5
AAFD9
330
1F
100
AcDbEntity
  8
Line - General Feature
100
AcDbPolyline
 90
        2
 70
     0
 43
0.0
 10
291234.35
 20
90966.14999999999
 10
291235.96
 20
90963.11999999999
  0
LWPOLYLINE
  5
AAFDA
330
1F
100
AcDbEntity
  8
Line - General Feature
100
AcDbPolyline
 90
        2
 70
     0
 43
0.0
 10
291235.75
 20
90968.59
 10
291233.65
 20
90967.4
  0
LWPOLYLINE
  5
AAFDB
330
1F
100
AcDbEntity
  8
Line - Building - Division
100
AcDbPolyline
 90
        2
 70
     0
 43
0.0
 10
291233.72
 20
90984.96
 10
291240.43
 20
90988.61000000001
  0
LWPOLYLINE
  5
AAFDC
330
1F
100
AcDbEntity
  8
Line - General Feature
100
AcDbPolyline
 90
        2
 70
     0
 43
0.0
 10
291227.0900000001
 20
90937.78999999999
 10
291230.95
 20
90934.19
  0
LWPOLYLINE
  5
AAFDD
330
1F
100
AcDbEntity
  8
Line - Building - Outline
100
AcDbPolyline
 90
        2
 70
     0
 43
0.0
 10
291236.1500000001
 20
90980.5
 10
291238.47
 20
90976.25999999999
  0
LWPOLYLINE
  5
AAFDE
330
1F
100
AcDbEntity
  8
Line - General Feature
100
AcDbPolyline
 90
        2
 70
     0
 43
0.0
 10
291225.87
 20
90923.58
 10
291232.2920000001
 20
90917.469
  0
LWPOLYLINE
  5
AAFDF
330
1F
100
AcDbEntity
  8
Line - Building - Outline
100
AcDbPolyline
 90
        6
 70
     0
 43
0.0
 10
291220.65
 20
90933.25
 10
291222.47
 20
90935.15199999998
 10
291221.403
 20
90936.166
 10
291223.05
 20
90937.9
 10
291216.8
 20
90943.9
 10
291213.38
 20
90940.35000000001
  0
LWPOLYLINE
  5
AAFE0
330
1F
100
AcDbEntity
  8
Line - Building - Division
100
AcDbPolyline
 90
        3
 70
     0
 43
0.0
 10
291220.65
 20
90933.25
 10
291219.64
 20
90934.31
 10
291213.38
 20
90940.35000000001
  0
LWPOLYLINE
  5
AAFE1
330
1F
100
AcDbEntity
  8
Line - Network Or Polygon Closing Geometry - Inferred Property Closing Link
100
AcDbPolyline
 90
        2
 70
     0
 43
0.0
 10
291206.741
 20
90936.36700000001
 10
291215.927
 20
90927.72300000001
  0
LWPOLYLINE
  5
AAFE2
330
1F
100
AcDbEntity
  8
Line - Building - Outline
100
AcDbPolyline
 90
        2
 70
     0
 43
0.0
 10
291232.2920000001
 20
90917.469
 10
291232.839
 20
90916.94900000002
  0
LWPOLYLINE
  5
AAFE3
330
1F
100
AcDbEntity
  8
Line - Road Or Track - Public
100
AcDbPolyline
 90
        5
 70
     0
 43
0.0
 10
291185.4
 20
90920.45
 10
291183.1
 20
90922.75
 10
291181.1
 20
90925.1
 10
291178.15
 20
90928.75000000001
 10
291176.0
 20
90931.14999999999
  0
LWPOLYLINE
  5
AAFE4
330
1F
100
AcDbEntity
  8
Line - General Feature
100
AcDbPolyline
 90
        3
 70
     0
 43
0.0
 10
291212.542
 20
90919.906
 10
291214.76
 20
90917.65
 10
291215.94
 20
90916.44999999999
  0
LWPOLYLINE
  5
AAFE5
330
1F
100
AcDbEntity
  8
Line - General Feature
100
AcDbPolyline
 90
        2
 70
     0
 43
0.0
 10
291236.28
 20
90935.12
 10
291242.395
 20
90929.16
  0
LWPOLYLINE
  5
AAFE6
330
1F
100
AcDbEntity
  8
Line - Building - Outline
100
AcDbPolyline
 90
        4
 70
     0
 43
0.0
 10
291247.0
 20
90929.61066610001
 10
291246.539
 20
90929.12699999999
 10
291245.039
 20
90930.55699999998
 10
291243.075
 20
90928.49699999998
  0
LWPOLYLINE
  5
AAFE7
330
1F
100
AcDbEntity
  8
Line - General Feature
100
AcDbPolyline
 90
        2
 70
     0
 43
0.0
 10
291215.927
 20
90927.72300000001
 10
291218.98
 20
90924.85000000001
  0
LWPOLYLINE
  5
AAFE8
330
1F
100
AcDbEntity
  8
Line - Building - Outline
100
AcDbPolyline
 90
        2
 70
     0
 43
0.0
 10
291227.1
 20
90915.35
 10
291230.45
 20
90912.35000000001
  0
LWPOLYLINE
  5
AAFE9
330
1F
100
AcDbEntity
  8
Line - Building - Division
100
AcDbPolyline
 90
        2
 70
     0
 43
0.0
 10
291243.075
 20
90928.49699999998
 10
291244.56
 20
90927.05
  0
LWPOLYLINE
  5
AAFEA
330
1F
100
AcDbEntity
  8
Line - General Feature
100
AcDbPolyline
 90
        2
 70
     0
 43
0.0
 10
291206.81
 20
90996.93
 10
291204.74
 20
90995.85000000001
  0
LWPOLYLINE
  5
AAFEB
330
1F
100
AcDbEntity
  8
Line - General Feature
100
AcDbPolyline
 90
        2
 70
     0
 43
0.0
 10
291219.2000000001
 20
90985.6
 10
291220.12
 20
90983.91000000001
  0
LWPOLYLINE
  5
AAFEC
330
1F
100
AcDbEntity
  8
Line - General Feature
100
AcDbPolyline
 90
        3
 70
     0
 43
0.0
 10
291161.55
 20
90986.79999999999
 10
291170.28
 20
90990.58000000001
 10
291184.16
 20
90996.59
  0
LWPOLYLINE
  5
AAFED
330
1F
100
AcDbEntity
  8
Line - General Feature
100
AcDbPolyline
 90
        2
 70
     0
 43
0.0
 10
291206.6135505
 20
90997.3
 10
291206.81
 20
90996.93
  0
MTEXT
  5
AAFEE
330
1F
100
AcDbEntity
  8
Contour - ordinary
100
AcDbMText
 10
291159.5
 20
90924.58999999999
 30
10.0
 40
2.0
 41
0.0
 71
     5
 72
     1
  1
10
 73
     1
 44
1.0
  0
LWPOLYLINE
  5
AAFEF
330
1F
100
AcDbEntity
  8
Contour - ordinary
100
AcDbPolyline
 90
        4
 70
     0
 43
0.0
 10
291180.8821542001
 20
90897.30000000001
 10
291159.5
 20
90924.58999999999
 10
291151.39
 20
90936.64999999999
 10
291147.0
 20
90944.55439889999
  0
LWPOLYLINE
  5
AAFF0
330
1F
100
AcDbEntity
  8
UKPM - grid
100
AcDbPolyline
 90
        5
 70
     0
 43
0.0
 10
291147.0
 20
90897.30000000001
 10
291147.0
 20
90997.3
 10
291247.0
 20
90997.3
 10
291247.0
 20
90897.30000000001
 10
291147.0
 20
90897.30000000001
  0
LWPOLYLINE
  5
AAFF1
330
1F
100
AcDbEntity
  8
UKPM - scale and labels
100
AcDbPolyline
 90
        2
 70
     0
 43
0.0
 10
291172.0
 20
90867.69999999999
 10
291232.0
 20
90867.69999999999
  0
LWPOLYLINE
  5
AAFF2
330
1F
100
AcDbEntity
  8
UKPM - scale and labels
100
AcDbPolyline
 90
        2
 70
     0
 43
0.0
 10
291172.0
 20
90870.10000000001
 10
291172.0
 20
90865.30000000001
  0
LWPOLYLINE
  5
AAFF3
330
1F
100
AcDbEntity
  8
UKPM - scale and labels
100
AcDbPolyline
 90
        2
 70
     0
 43
0.0
 10
291182.0
 20
90870.10000000001
 10
291182.0
 20
90865.30000000001
  0
LWPOLYLINE
  5
AAFF4
330
1F
100
AcDbEntity
  8
UKPM - scale and labels
100
AcDbPolyline
 90
        2
 70
     0
 43
0.0
 10
291192.0
 20
90870.10000000001
 10
291192.0
 20
90865.30000000001
  0
LWPOLYLINE
  5
AAFF5
330
1F
100
AcDbEntity
  8
UKPM - scale and labels
100
AcDbPolyline
 90
        2
 70
     0
 43
0.0
 10
291202.0
 20
90870.10000000001
 10
291202.0
 20
90865.30000000001
  0
LWPOLYLINE
  5
AAFF6
330
1F
100
AcDbEntity
  8
UKPM - scale and labels
100
AcDbPolyline
 90
        2
 70
     0
 43
0.0
 10
291212.0
 20
90870.10000000001
 10
291212.0
 20
90865.30000000001
  0
LWPOLYLINE
  5
AAFF7
330
1F
100
AcDbEntity
  8
UKPM - scale and labels
100
AcDbPolyline
 90
        2
 70
     0
 43
0.0
 10
291222.0
 20
90870.10000000001
 10
291222.0
 20
90865.30000000001
  0
LWPOLYLINE
  5
AAFF8
330
1F
100
AcDbEntity
  8
UKPM - scale and labels
100
AcDbPolyline
 90
        2
 70
     0
 43
0.0
 10
291232.0
 20
90870.10000000001
 10
291232.0
 20
90865.30000000001
  0
LWPOLYLINE
  5
AAFF9
330
1F
100
AcDbEntity
  8
UKPM - scale and labels
100
AcDbPolyline
 90
        2
 70
     0
 43
0.0
 10
291173.0
 20
90870.10000000001
 10
291173.0
 20
90867.69999999999
  0
LWPOLYLINE
  5
AAFFA
330
1F
100
AcDbEntity
  8
UKPM - scale and labels
100
AcDbPolyline
 90
        2
 70
     0
 43
0.0
 10
291174.0
 20
90870.10000000001
 10
291174.0
 20
90867.69999999999
  0
LWPOLYLINE
  5
AAFFB
330
1F
100
AcDbEntity
  8
UKPM - scale and labels
100
AcDbPolyline
 90
        2
 70
     0
 43
0.0
 10
291175.0
 20
90870.10000000001
 10
291175.0
 20
90867.69999999999
  0
LWPOLYLINE
  5
AAFFC
330
1F
100
AcDbEntity
  8
UKPM - scale and labels
100
AcDbPolyline
 90
        2
 70
     0
 43
0.0
 10
291176.0
 20
90870.10000000001
 10
291176.0
 20
90867.69999999999
  0
LWPOLYLINE
  5
AAFFD
330
1F
100
AcDbEntity
  8
UKPM - scale and labels
100
AcDbPolyline
 90
        2
 70
     0
 43
0.0
 10
291177.5
 20
90870.10000000001
 10
291177.5
 20
90867.69999999999
  0
LWPOLYLINE
  5
AAFFE
330
1F
100
AcDbEntity
  8
UKPM - scale and labels
100
AcDbPolyline
 90
        2
 70
     0
 43
0.0
 10
291178.0
 20
90870.10000000001
 10
291178.0
 20
90867.69999999999
  0
LWPOLYLINE
  5
AAFFF
330
1F
100
AcDbEntity
  8
UKPM - scale and labels
100
AcDbPolyline
 90
        2
 70
     0
 43
0.0
 10
291178.5
 20
90870.10000000001
 10
291178.5
 20
90867.69999999999
  0
LWPOLYLINE
  5
AB000
330
1F
100
AcDbEntity
  8
UKPM - scale and labels
100
AcDbPolyline
 90
        2
 70
     0
 43
0.0
 10
291179.0
 20
90870.10000000001
 10
291179.0
 20
90867.69999999999
  0
LWPOLYLINE
  5
AB001
330
1F
100
AcDbEntity
  8
UKPM - scale and labels
100
AcDbPolyline
 90
        2
 70
     0
 43
0.0
 10
291179.5
 20
90870.10000000001
 10
291179.5
 20
90867.69999999999
  0
LWPOLYLINE
  5
AB002
330
1F
100
AcDbEntity
  8
UKPM - scale and labels
100
AcDbPolyline
 90
        2
 70
     0
 43
0.0
 10
291180.0
 20
90870.10000000001
 10
291180.0
 20
90867.69999999999
  0
LWPOLYLINE
  5
AB003
330
1F
100
AcDbEntity
  8
UKPM - scale and labels
100
AcDbPolyline
 90
        2
 70
     0
 43
0.0
 10
291180.5
 20
90870.10000000001
 10
291180.5
 20
90867.69999999999
  0
LWPOLYLINE
  5
AB004
330
1F
100
AcDbEntity
  8
UKPM - scale and labels
100
AcDbPolyline
 90
        2
 70
     0
 43
0.0
 10
291181.0
 20
90870.10000000001
 10
291181.0
 20
90867.69999999999
  0
LWPOLYLINE
  5
AB005
330
1F
100
AcDbEntity
  8
UKPM - scale and labels
100
AcDbPolyline
 90
        2
 70
     0
 43
0.0
 10
291181.5
 20
90870.10000000001
 10
291181.5
 20
90867.69999999999
  0
LWPOLYLINE
  5
AB006
330
1F
100
AcDbEntity
  8
UKPM - scale and labels
100
AcDbPolyline
 90
        2
 70
     0
 43
0.0
 10
291177.0
 20
90870.10000000001
 10
291177.0
 20
90865.30000000001
  0
LWPOLYLINE
  5
AB007
330
1F
100
AcDbEntity
  8
UKPM - scale and labels
100
AcDbPolyline
 90
        2
 70
     0
 43
0.0
 10
291179.5
 20
90867.69999999999
 10
291179.5
 20
90865.30000000001
  0
MTEXT
  5
AB008
330
1F
100
AcDbEntity
  8
UKPM - scale and labels
100
AcDbMText
 10
291202.0
 20
90860.5
 30
0.0
 40
2.399999999999999
 41
0.0
 71
     5
 72
     1
  1
Metres
 73
     1
 44
1.0
  0
MTEXT
  5
AB009
330
1F
100
AcDbEntity
  8
UKPM - scale and labels
100
AcDbMText
 10
291172.0
 20
90872.5
 30
0.0
 40
2.399999999999999
 41
0.0
 71
     5
 72
     1
  1
10
 73
     1
 44
1.0
  0
MTEXT
  5
AB00A
330
1F
100
AcDbEntity
  8
UKPM - scale and labels
100
AcDbMText
 10
291182.0
 20
90872.5
 30
0.0
 40
2.399999999999999
 41
0.0
 71
     5
 72
     1
  1
0
 73
     1
 44
1.0
  0
MTEXT
  5
AB00B
330
1F
100
AcDbEntity
  8
UKPM - scale and labels
100
AcDbMText
 10
291192.0
 20
90872.5
 30
0.0
 40
2.399999999999999
 41
0.0
 71
     5
 72
     1
  1
10
 73
     1
 44
1.0
  0
MTEXT
  5
AB00C
330
1F
100
AcDbEntity
  8
UKPM - scale and labels
100
AcDbMText
 10
291202.0
 20
90872.5
 30
0.0
 40
2.399999999999999
 41
0.0
 71
     5
 72
     1
  1
20
 73
     1
 44
1.0
  0
MTEXT
  5
AB00D
330
1F
100
AcDbEntity
  8
UKPM - scale and labels
100
AcDbMText
 10
291212.0
 20
90872.5
 30
0.0
 40
2.399999999999999
 41
0.0
 71
     5
 72
     1
  1
30
 73
     1
 44
1.0
  0
MTEXT
  5
AB00E
330
1F
100
AcDbEntity
  8
UKPM - scale and labels
100
AcDbMText
 10
291222.0
 20
90872.5
 30
0.0
 40
2.399999999999999
 41
0.0
 71
     5
 72
     1
  1
40
 73
     1
 44
1.0
  0
MTEXT
  5
AB00F
330
1F
100
AcDbEntity
  8
UKPM - scale and labels
100
AcDbMText
 10
291232.0
 20
90872.5
 30
0.0
 40
2.399999999999999
 41
0.0
 71
     5
 72
     1
  1
50
 73
     1
 44
1.0
  0
MTEXT
  5
AB010
330
1F
100
AcDbEntity
  8
UKPM - scale and labels
100
AcDbMText
 10
291127.0
 20
90848.7
 30
0.0
 40
2.6
 41
0.0
 71
     7
 72
     1
  1
Produced on 12 May 2017 from the Ordnance Survey National Geographic Database and incorporating surveyed revision available at this date.
 73
     1
 44
1.0
  0
MTEXT
  5
AB011
330
1F
100
AcDbEntity
  8
UKPM - scale and labels
100
AcDbMText
 10
291127.0
 20
90843.5
 30
0.0
 40
2.6
 41
0.0
 71
     7
 72
     1
  1
This map shows the area bounded by 291147,90897 291147,90997 291247,90997 291247,90897
 73
     1
 44
1.0
  0
MTEXT
  5
AB012
330
1F
100
AcDbEntity
  8
UKPM - scale and labels
100
AcDbMText
 10
291127.0
 20
90838.3
 30
0.0
 40
2.6
 41
0.0
 71
     7
 72
     1
  1
Reproduction in whole or part is prohibited without the prior permission of Ordnance Survey.
 73
     1
 44
1.0
  0
MTEXT
  5
AB013
330
1F
100
AcDbEntity
  8
UKPM - scale and labels
100
AcDbMText
 10
291127.0
 20
90833.1
 30
0.0
 40
2.6
 41
0.0
 71
     7
 72
     1
  1
Crown copyright 2017. Supplied by copla ltd trading as UKPlanningMaps.com a licensed Ordnance Survey partner (100054135).
 73
     1
 44
1.0
  0
MTEXT
  5
AB014
330
1F
100
AcDbEntity
  8
UKPM - scale and labels
100
AcDbMText
 10
291127.0
 20
90827.89999999999
 30
0.0
 40
2.6
 41
0.0
 71
     7
 72
     1
  1
Data licenced for 1 year, expiring 12 May 2018. Unique plan reference: v1b/161655/222147
 73
     1
 44
1.0
  0
MTEXT
  5
AB015
330
1F
100
AcDbEntity
  8
UKPM - scale and labels
100
AcDbMText
 10
291127.0
 20
91038.10000000001
 30
0.0
 40
10.4
 41
0.0
 71
     7
 72
     1
  1
UKPlanningMaps.com
 73
     1
 44
1.0
  0
LWPOLYLINE
  5
AB016
330
1F
100
AcDbEntity
  8
UKPM - scale and labels
100
AcDbPolyline
 90
        2
 70
     0
 43
0.0
 10
291287.0
 20
90907.3
 10
291287.0
 20
90887.29999999999
  0
LWPOLYLINE
  5
AB017
330
1F
100
AcDbEntity
  8
UKPM - scale and labels
100
AcDbPolyline
 90
        2
 70
     0
 43
0.0
 10
291287.0
 20
90907.3
 10
291282.0
 20
90902.3
  0
LWPOLYLINE
  5
AB018
330
1F
100
AcDbEntity
  8
UKPM - scale and labels
100
AcDbPolyline
 90
        2
 70
     0
 43
0.0
 10
291287.0
 20
90907.3
 10
291292.0
 20
90902.3
  0
MTEXT
  5
AB019
330
1F
100
AcDbEntity
  8
UKPM - scale and labels
100
AcDbMText
 10
291287.0
 20
90882.30000000001
 30
0.0
 40
4.0
 41
0.0
 71
     5
 72
     1
  1
N
 73
     1
 44
1.0
  0
LWPOLYLINE
  5
AB01A
330
1F
100
AcDbEntity
  8
UKPM - grid
100
AcDbPolyline
 90
        5
 70
     0
 43
0.0
 10
291127.0
 20
90877.3
 10
291127.0
 20
91017.29999999999
 10
291267.0
 20
91017.29999999999
 10
291267.0
 20
90877.3
 10
291127.0
 20
90877.3
  0
LWPOLYLINE
  5
AB01B
330
1F
100
AcDbEntity
  8
UKPM - grid
100
AcDbPolyline
 90
        2
 70
     0
 43
0.0
 10
291197.0
 20
90897.30000000001
 10
291197.0
 20
90997.3
  0
LWPOLYLINE
  5
AB01C
330
1F
100
AcDbEntity
  8
UKPM - grid
100
AcDbPolyline
 90
        2
 70
     0
 43
0.0
 10
291247.0
 20
90897.30000000001
 10
291247.0
 20
90997.3
  0
MTEXT
  5
AB01D
330
1F
100
AcDbEntity
  8
UKPM - grid
100
AcDbMText
 10
291147.0
 20
90895.29999999999
 30
0.0
 40
2.0
 41
0.0
 71
     6
 72
     1
  1
291147
 11
0.0000000000000001
 21
1.0
 31
0.0
 73
     1
 44
1.0
  0
MTEXT
  5
AB01E
330
1F
100
AcDbEntity
  8
UKPM - grid
100
AcDbMText
 10
291197.0
 20
90895.29999999999
 30
0.0
 40
2.0
 41
0.0
 71
     6
 72
     1
  1
291197
 11
0.0000000000000001
 21
1.0
 31
0.0
 73
     1
 44
1.0
  0
MTEXT
  5
AB01F
330
1F
100
AcDbEntity
  8
UKPM - grid
100
AcDbMText
 10
291247.0
 20
90895.29999999999
 30
0.0
 40
2.0
 41
0.0
 71
     6
 72
     1
  1
291247
 11
0.0000000000000001
 21
1.0
 31
0.0
 73
     1
 44
1.0
  0
LWPOLYLINE
  5
AB020
330
1F
100
AcDbEntity
  8
UKPM - grid
100
AcDbPolyline
 90
        2
 70
     0
 43
0.0
 10
291147.0
 20
90947.3
 10
291247.0
 20
90947.3
  0
LWPOLYLINE
  5
AB021
330
1F
100
AcDbEntity
  8
UKPM - grid
100
AcDbPolyline
 90
        2
 70
     0
 43
0.0
 10
291147.0
 20
90997.3
 10
291247.0
 20
90997.3
  0
MTEXT
  5
AB022
330
1F
100
AcDbEntity
  8
UKPM - grid
100
AcDbMText
 10
291145.0
 20
90897.30000000001
 30
0.0
 40
2.0
 41
0.0
 71
     6
 72
     1
  1
90897
 73
     1
 44
1.0
  0
MTEXT
  5
AB023
330
1F
100
AcDbEntity
  8
UKPM - grid
100
AcDbMText
 10
291145.0
 20
90947.3
 30
0.0
 40
2.0
 41
0.0
 71
     6
 72
     1
  1
90947
 73
     1
 44
1.0
  0
MTEXT
  5
AB024
330
1F
100
AcDbEntity
  8
UKPM - grid
100
AcDbMText
 10
291145.0
 20
90997.3
 30
0.0
 40
2.0
 41
0.0
 71
     6
 72
     1
  1
90997
 73
     1
 44
1.0
  0
ENDSEC
  0
SECTION
  2
OBJECTS
  0
DICTIONARY
  5
C
330
0
100
AcDbDictionary
281
     1
  3
ACAD_CIP_PREVIOUS_PRODUCT_INFO
350
F4293
  3
ACAD_COLOR
350
F4276
  3
ACAD_DETAILVIEWSTYLE
350
F428D
  3
ACAD_GROUP
350
D
  3
ACAD_LAYOUT
350
1A
  3
ACAD_MATERIAL
350
F4244
  3
ACAD_MLEADERSTYLE
350
F4289
  3
ACAD_MLINESTYLE
350
17
  3
ACAD_PLOTSETTINGS
350
19
  3
ACAD_PLOTSTYLENAME
350
F4242
  3
ACAD_SCALELIST
350
F4277
  3
ACAD_SECTIONVIEWSTYLE
350
F428B
  3
ACAD_TABLESTYLE
350
2A
  3
ACAD_VISUALSTYLE
350
F425D
  3
ACDB_RECOMPOSE_DATA
350
F42BD
  3
ACDBVARIABLEDICTIONARY
350
2C
  3
AcDsDecomposeData
350
F42C3
  0
DICTIONARY
  5
F42AF
330
2
100
AcDbDictionary
280
     1
281
     1
  3
ACAD_LAYERSTATES
360
F42B0
  0
DICTIONARY
  5
F4294
330
10
100
AcDbDictionary
280
     1
281
     1
  3
ADSK_XREC_LAYER_RECONCILED
360
F4295
  0
DICTIONARY
  5
F4296
330
2E
100
AcDbDictionary
280
     1
281
     1
  3
ADSK_XREC_LAYER_RECONCILED
360
F4297
  0
DICTIONARY
  5
F4298
330
2F
100
AcDbDictionary
280
     1
281
     1
  3
ADSK_XREC_LAYER_RECONCILED
360
F4299
  0
DICTIONARY
  5
F429A
330
30
100
AcDbDictionary
280
     1
281
     1
  3
ADSK_XREC_LAYER_RECONCILED
360
F429B
  0
DICTIONARY
  5
F429C
330
31
100
AcDbDictionary
280
     1
281
     1
  3
ADSK_XREC_LAYER_RECONCILED
360
F429D
  0
DICTIONARY
  5
F429E
330
32
100
AcDbDictionary
280
     1
281
     1
  3
ADSK_XREC_LAYER_RECONCILED
360
F429F
  0
DICTIONARY
  5
F42A0
330
33
100
AcDbDictionary
280
     1
281
     1
  3
ADSK_XREC_LAYER_RECONCILED
360
F42A1
  0
DICTIONARY
  5
F42A2
330
34
100
AcDbDictionary
280
     1
281
     1
  3
ADSK_XREC_LAYER_RECONCILED
360
F42A3
  0
DICTIONARY
  5
F42A4
330
35
100
AcDbDictionary
280
     1
281
     1
  3
ADSK_XREC_LAYER_RECONCILED
360
F42A5
  0
DICTIONARY
  5
F42A6
330
36
100
AcDbDictionary
280
     1
281
     1
  3
ADSK_XREC_LAYER_RECONCILED
360
F42A7
  0
DICTIONARY
  5
F42A8
330
37
100
AcDbDictionary
280
     1
281
     1
  3
ADSK_XREC_LAYER_RECONCILED
360
F42A9
  0
DICTIONARY
  5
F42AA
330
38
100
AcDbDictionary
280
     1
281
     1
  3
ADSK_XREC_LAYER_RECONCILED
360
F42AB
  0
XRECORD
  5
F4293
102
{ACAD_REACTORS
330
C
102
}
330
C
100
AcDbXrecord
280
     1
300
ACDMAC
300
2015
300
ACDMAC_F_S
  0
DICTIONARY
  5
F4276
102
{ACAD_REACTORS
330
C
102
}
330
C
100
AcDbDictionary
281
     1
  0
DICTIONARY
  5
F428D
102
{ACAD_REACTORS
330
C
102
}
330
C
100
AcDbDictionary
281
     1
  3
Imperial24
350
F428E
  0
DICTIONARY
  5
D
102
{ACAD_REACTORS
330
C
102
}
330
C
100
AcDbDictionary
281
     1
  0
DICTIONARY
  5
1A
102
{ACAD_REACTORS
330
C
102
}
330
C
100
AcDbDictionary
281
     1
  3
Layout1
350
F4290
  3
Model
350
F428F
  0
DICTIONARY
  5
F4244
102
{ACAD_REACTORS
330
C
102
}
330
C
100
AcDbDictionary
281
     1
  3
ByBlock
350
F424D
  3
ByLayer
350
F4245
  3
Global
350
F4255
  0
DICTIONARY
  5
F4289
102
{ACAD_REACTORS
330
C
102
}
330
C
100
AcDbDictionary
281
     1
  3
Standard
350
F428A
  0
DICTIONARY
  5
17
102
{ACAD_REACTORS
330
C
102
}
330
C
100
AcDbDictionary
281
     1
  3
STANDARD
350
18
  0
DICTIONARY
  5
19
102
{ACAD_REACTORS
330
C
102
}
330
C
100
AcDbDictionary
281
     1
  0
ACDBDICTIONARYWDFLT
  5
F4242
102
{ACAD_REACTORS
330
C
102
}
330
C
100
AcDbDictionary
281
     1
  3
Normal
350
F4243
100
AcDbDictionaryWithDefault
340
F4243
  0
DICTIONARY
  5
F4277
102
{ACAD_REACTORS
330
C
102
}
330
C
100
AcDbDictionary
281
     1
  3
A0
350
F4278
  3
A1
350
F4279
  3
A2
350
F427A
  3
A3
350
F427B
  3
A4
350
F427C
  3
A5
350
F427D
  3
A6
350
F427E
  3
A7
350
F427F
  3
A8
350
F4280
  3
A9
350
F4281
  3
B0
350
F4282
  3
B1
350
F4283
  3
B2
350
F4284
  3
B3
350
F4285
  3
B4
350
F4286
  3
B5
350
F4287
  3
B6
350
F4288
  0
DICTIONARY
  5
F428B
102
{ACAD_REACTORS
330
C
102
}
330
C
100
AcDbDictionary
281
     1
  3
Imperial24
350
F428C
  0
DICTIONARY
  5
2A
102
{ACAD_REACTORS
330
C
102
}
330
C
100
AcDbDictionary
281
     1
  3
STANDARD
350
2B
  0
DICTIONARY
  5
F425D
102
{ACAD_REACTORS
330
C
102
}
330
C
100
AcDbDictionary
281
     1
  3
2dWireframe
350
F4263
  3
Basic
350
F4262
  3
Brighten
350
F4269
  3
ColorChange
350
F426D
  3
Conceptual
350
F4266
  3
Dim
350
F4268
  3
EdgeColorOff
350
F4275
  3
Facepattern
350
F426C
  3
Flat
350
F425E
  3
FlatWithEdges
350
F425F
  3
Gouraud
350
F4260
  3
GouraudWithEdges
350
F4261
  3
Hidden
350
F4265
  3
JitterOff
350
F4273
  3
Linepattern
350
F426B
  3
OverhangOff
350
F4274
  3
Realistic
350
F4267
  3
Shaded
350
F4272
  3
Shaded with edges
350
F4271
  3
Shades of Gray
350
F426E
  3
Sketchy
350
F426F
  3
Thicken
350
F426A
  3
Wireframe
350
F4264
  3
X-Ray
350
F4270
  0
XRECORD
  5
F42BD
102
{ACAD_REACTORS
330
C
102
}
330
C
100
AcDbXrecord
280
     1
 90
        1
330
2B
  0
DICTIONARY
  5
2C
102
{ACAD_REACTORS
330
C
102
}
330
C
100
AcDbDictionary
281
     1
  3
CANNOSCALE
350
F42B8
  3
CMLEADERSTYLE
350
F42B5
  3
CTABLESTYLE
350
2D
  3
CVIEWDETAILSTYLE
350
F42B6
  3
CVIEWSECTIONSTYLE
350
F42B7
  3
XCLIPFRAME
350
F42B9
  0
DICTIONARY
  5
F42C3
102
{ACAD_REACTORS
330
C
102
}
330
C
100
AcDbDictionary
281
     1
  3
AcDsRecords
350
F42C5
  3
AcDsSchemas
350
F42C4
1001
ACAD
1070
     2
  0
DICTIONARY
  5
F42B0
102
{ACAD_REACTORS
330
F42AF
102
}
330
F42AF
100
AcDbDictionary
281
     1
  0
XRECORD
  5
F4295
102
{ACAD_REACTORS
330
F4294
102
}
330
F4294
100
AcDbXrecord
280
     1
290
     1
  0
XRECORD
  5
F4297
102
{ACAD_REACTORS
330
F4296
102
}
330
F4296
100
AcDbXrecord
280
     1
290
     1
  0
XRECORD
  5
F4299
102
{ACAD_REACTORS
330
F4298
102
}
330
F4298
100
AcDbXrecord
280
     1
290
     1
  0
XRECORD
  5
F429B
102
{ACAD_REACTORS
330
F429A
102
}
330
F429A
100
AcDbXrecord
280
     1
290
     1
  0
XRECORD
  5
F429D
102
{ACAD_REACTORS
330
F429C
102
}
330
F429C
100
AcDbXrecord
280
     1
290
     1
  0
XRECORD
  5
F429F
102
{ACAD_REACTORS
330
F429E
102
}
330
F429E
100
AcDbXrecord
280
     1
290
     1
  0
XRECORD
  5
F42A1
102
{ACAD_REACTORS
330
F42A0
102
}
330
F42A0
100
AcDbXrecord
280
     1
290
     1
  0
XRECORD
  5
F42A3
102
{ACAD_REACTORS
330
F42A2
102
}
330
F42A2
100
AcDbXrecord
280
     1
290
     1
  0
XRECORD
  5
F42A5
102
{ACAD_REACTORS
330
F42A4
102
}
330
F42A4
100
AcDbXrecord
280
     1
290
     1
  0
XRECORD
  5
F42A7
102
{ACAD_REACTORS
330
F42A6
102
}
330
F42A6
100
AcDbXrecord
280
     1
290
     1
  0
XRECORD
  5
F42A9
102
{ACAD_REACTORS
330
F42A8
102
}
330
F42A8
100
AcDbXrecord
280
     1
290
     1
  0
XRECORD
  5
F42AB
102
{ACAD_REACTORS
330
F42AA
102
}
330
F42AA
100
AcDbXrecord
280
     1
290
     1
  0
ACDBDETAILVIEWSTYLE
  5
F428E
102
{ACAD_XDICTIONARY
360
F42FD
102
}
102
{ACAD_REACTORS
330
F428D
102
}
330
F428D
100
AcDbModelDocViewStyle
 70
     0
  3
Imperial24
290
     0
100
AcDbDetailViewStyle
 70
     0
 71
     0
 90
        3
 71
     1
340
11
 62
   256
 40
0.24
340
0
 62
   256
 40
0.24
300

 40
0.36
280
     3
 71
     2
340
16
 90
       25
 62
   256
 71
     3
340
11
 62
   256
 40
0.24
 90
        1
 40
0.75
 90
        1
300
%<\AcVar ViewType \f "%tc1">% %<\AcVar ViewDetailId>%\PSCALE %<\AcVar ViewScale \f "%sn">%
 71
     4
340
16
 90
       25
 62
   256
340
16
 90
       25
 62
   256
280
     0
  0
LAYOUT
  5
F4290
102
{ACAD_REACTORS
330
1A
102
}
330
1A
100
AcDbPlotSettings
  1

  2
AL_C3800_3F93BE
  4

  6

 40
0.0
 41
0.0
 42
0.0
 43
0.0
 44
0.0
 45
0.0
 46
0.0
 47
0.0
 48
0.0
 49
0.0
140
0.0
141
0.0
142
1.0
143
1.0
 70
   688
 72
     0
 73
     0
 74
     5
  7

 75
    16
147
1.0
 76
     0
 77
     2
 78
   300
148
0.0
149
0.0
100
AcDbLayout
  1
Layout1
 70
     1
 71
     1
 10
0.0
 20
0.0
 11
12.0
 21
9.0
 12
0.0
 22
0.0
 32
0.0
 14
1.000000000000000E+20
 24
1.000000000000000E+20
 34
1.000000000000000E+20
 15
-1.000000000000000E+20
 25
-1.000000000000000E+20
 35
-1.000000000000000E+20
146
0.0
 13
0.0
 23
0.0
 33
0.0
 16
1.0
 26
0.0
 36
0.0
 17
0.0
 27
1.0
 37
0.0
 76
     0
330
1B
  0
LAYOUT
  5
F428F
102
{ACAD_REACTORS
330
1A
102
}
330
1A
100
AcDbPlotSettings
  1

  2
AL_C3800_3F93BE
  4

  6

 40
0.0
 41
0.0
 42
0.0
 43
0.0
 44
0.0
 45
0.0
 46
0.0
 47
0.0
 48
0.0
 49
0.0
140
0.0
141
0.0
142
1.0
143
1.0
 70
  1712
 72
     0
 73
     0
 74
     0
  7

 75
     0
147
1.0
 76
     0
 77
     2
 78
   300
148
0.0
149
0.0
100
AcDbLayout
  1
Model
 70
     1
 71
     0
 10
0.0
 20
0.0
 11
12.0
 21
9.0
 12
0.0
 22
0.0
 32
0.0
 14
0.0
 24
0.0
 34
0.0
 15
0.0
 25
0.0
 35
0.0
146
0.0
 13
0.0
 23
0.0
 33
0.0
 16
1.0
 26
0.0
 36
0.0
 17
0.0
 27
1.0
 37
0.0
 76
     0
330
1F
331
29
  0
MATERIAL
  5
F424D
102
{ACAD_XDICTIONARY
360
F424E
102
}
102
{ACAD_REACTORS
330
F4244
102
}
330
F4244
100
AcDbMaterial
  1
ByBlock
 72
     0
 43
0.0208333333333333
 43
0.0
 43
0.0
 43
0.0
 43
0.0
 43
0.0208333333333333
 43
0.0
 43
0.0
 43
0.0
 43
0.0
 43
1.0
 43
0.0
 43
0.0
 43
0.0
 43
0.0
 43
1.0
 77
     0
 47
0.0208333333333333
 47
0.0
 47
0.0
 47
0.0
 47
0.0
 47
0.0208333333333333
 47
0.0
 47
0.0
 47
0.0
 47
0.0
 47
1.0
 47
0.0
 47
0.0
 47
0.0
 47
0.0
 47
1.0
171
     0
 49
0.0208333333333333
 49
0.0
 49
0.0
 49
0.0
 49
0.0
 49
0.0208333333333333
 49
0.0
 49
0.0
 49
0.0
 49
0.0
 49
1.0
 49
0.0
 49
0.0
 49
0.0
 49
0.0
 49
1.0
175
     0
142
0.0208333333333333
142
0.0
142
0.0
142
0.0
142
0.0
142
0.0208333333333333
142
0.0
142
0.0
142
0.0
142
0.0
142
1.0
142
0.0
142
0.0
142
0.0
142
0.0
142
1.0
179
     0
144
0.0208333333333333
144
0.0
144
0.0
144
0.0
144
0.0
144
0.0208333333333333
144
0.0
144
0.0
144
0.0
144
0.0
144
1.0
144
0.0
144
0.0
144
0.0
144
0.0
144
1.0
147
0.0208333333333333
147
0.0
147
0.0
147
0.0
147
0.0
147
0.0208333333333333
147
0.0
147
0.0
147
0.0
147
0.0
147
1.0
147
0.0
147
0.0
147
0.0
147
0.0
147
1.0
  0
MATERIAL
  5
F4245
102
{ACAD_XDICTIONARY
360
F4246
102
}
102
{ACAD_REACTORS
330
F4244
102
}
330
F4244
100
AcDbMaterial
  1
ByLayer
 72
     0
 43
0.0208333333333333
 43
0.0
 43
0.0
 43
0.0
 43
0.0
 43
0.0208333333333333
 43
0.0
 43
0.0
 43
0.0
 43
0.0
 43
1.0
 43
0.0
 43
0.0
 43
0.0
 43
0.0
 43
1.0
 77
     0
 47
0.0208333333333333
 47
0.0
 47
0.0
 47
0.0
 47
0.0
 47
0.0208333333333333
 47
0.0
 47
0.0
 47
0.0
 47
0.0
 47
1.0
 47
0.0
 47
0.0
 47
0.0
 47
0.0
 47
1.0
171
     0
 49
0.0208333333333333
 49
0.0
 49
0.0
 49
0.0
 49
0.0
 49
0.0208333333333333
 49
0.0
 49
0.0
 49
0.0
 49
0.0
 49
1.0
 49
0.0
 49
0.0
 49
0.0
 49
0.0
 49
1.0
175
     0
142
0.0208333333333333
142
0.0
142
0.0
142
0.0
142
0.0
142
0.0208333333333333
142
0.0
142
0.0
142
0.0
142
0.0
142
1.0
142
0.0
142
0.0
142
0.0
142
0.0
142
1.0
179
     0
144
0.0208333333333333
144
0.0
144
0.0
144
0.0
144
0.0
144
0.0208333333333333
144
0.0
144
0.0
144
0.0
144
0.0
144
1.0
144
0.0
144
0.0
144
0.0
144
0.0
144
1.0
147
0.0208333333333333
147
0.0
147
0.0
147
0.0
147
0.0
147
0.0208333333333333
147
0.0
147
0.0
147
0.0
147
0.0
147
1.0
147
0.0
147
0.0
147
0.0
147
0.0
147
1.0
  0
MATERIAL
  5
F4255
102
{ACAD_XDICTIONARY
360
F4256
102
}
102
{ACAD_REACTORS
330
F4244
102
}
330
F4244
100
AcDbMaterial
  1
Global
 72
     0
 43
0.0208333333333333
 43
0.0
 43
0.0
 43
0.0
 43
0.0
 43
0.0208333333333333
 43
0.0
 43
0.0
 43
0.0
 43
0.0
 43
1.0
 43
0.0
 43
0.0
 43
0.0
 43
0.0
 43
1.0
 77
     0
 47
0.0208333333333333
 47
0.0
 47
0.0
 47
0.0
 47
0.0
 47
0.0208333333333333
 47
0.0
 47
0.0
 47
0.0
 47
0.0
 47
1.0
 47
0.0
 47
0.0
 47
0.0
 47
0.0
 47
1.0
171
     0
 49
0.0208333333333333
 49
0.0
 49
0.0
 49
0.0
 49
0.0
 49
0.0208333333333333
 49
0.0
 49
0.0
 49
0.0
 49
0.0
 49
1.0
 49
0.0
 49
0.0
 49
0.0
 49
0.0
 49
1.0
175
     0
142
0.0208333333333333
142
0.0
142
0.0
142
0.0
142
0.0
142
0.0208333333333333
142
0.0
142
0.0
142
0.0
142
0.0
142
1.0
142
0.0
142
0.0
142
0.0
142
0.0
142
1.0
179
     0
144
0.0208333333333333
144
0.0
144
0.0
144
0.0
144
0.0
144
0.0208333333333333
144
0.0
144
0.0
144
0.0
144
0.0
144
1.0
144
0.0
144
0.0
144
0.0
144
0.0
144
1.0
147
0.0208333333333333
147
0.0
147
0.0
147
0.0
147
0.0
147
0.0208333333333333
147
0.0
147
0.0
147
0.0
147
0.0
147
1.0
147
0.0
147
0.0
147
0.0
147
0.0
147
1.0
  0
MLEADERSTYLE
  5
F428A
102
{ACAD_REACTORS
330
F4289
102
}
330
F4289
100
AcDbMLeaderStyle
170
     2
171
     1
172
     0
 90
        2
 40
0.0
 41
0.0
173
     1
 91
-1056964608
340
14
 92
       -2
290
     1
 42
0.09
291
     1
 43
0.36
  3
Standard
 44
0.18
300

342
11
174
     1
178
     6
175
     1
176
     0
 93
-1056964608
 45
0.18
292
     0
297
     0
 46
0.18
 94
-1056964608
 47
1.0
 49
1.0
140
1.0
293
     1
141
0.0
294
     1
177
     0
142
1.0
295
     0
296
     0
143
0.125
1001
ACAD_MLEADERVER
1070
     2
  0
MLINESTYLE
  5
18
102
{ACAD_REACTORS
330
17
102
}
330
17
100
AcDbMlineStyle
  2
STANDARD
 70
     0
  3

 62
   256
 51
90.0
 52
90.0
 71
     2
 49
0.5
 62
   256
  6
BYLAYER
 49
-0.5
 62
   256
  6
BYLAYER
  0
ACDBPLACEHOLDER
  5
F4243
102
{ACAD_REACTORS
330
F4242
102
}
330
F4242
  0
SCALE
  5
F4278
102
{ACAD_REACTORS
330
F4277
102
}
330
F4277
100
AcDbScale
 70
     0
300
1:1
140
1.0
141
1.0
290
     1
  0
SCALE
  5
F4279
102
{ACAD_REACTORS
330
F4277
102
}
330
F4277
100
AcDbScale
 70
     0
300
1/128" = 1'-0"
140
0.0078125
141
12.0
290
     0
  0
SCALE
  5
F427A
102
{ACAD_REACTORS
330
F4277
102
}
330
F4277
100
AcDbScale
 70
     0
300
1/64" = 1'-0"
140
0.015625
141
12.0
290
     0
  0
SCALE
  5
F427B
102
{ACAD_REACTORS
330
F4277
102
}
330
F4277
100
AcDbScale
 70
     0
300
1/32" = 1'-0"
140
0.03125
141
12.0
290
     0
  0
SCALE
  5
F427C
102
{ACAD_REACTORS
330
F4277
102
}
330
F4277
100
AcDbScale
 70
     0
300
1/16" = 1'-0"
140
0.0625
141
12.0
290
     0
  0
SCALE
  5
F427D
102
{ACAD_REACTORS
330
F4277
102
}
330
F4277
100
AcDbScale
 70
     0
300
3/32" = 1'-0"
140
0.09375
141
12.0
290
     0
  0
SCALE
  5
F427E
102
{ACAD_REACTORS
330
F4277
102
}
330
F4277
100
AcDbScale
 70
     0
300
1/8" = 1'-0"
140
0.125
141
12.0
290
     0
  0
SCALE
  5
F427F
102
{ACAD_REACTORS
330
F4277
102
}
330
F4277
100
AcDbScale
 70
     0
300
3/16" = 1'-0"
140
0.1875
141
12.0
290
     0
  0
SCALE
  5
F4280
102
{ACAD_REACTORS
330
F4277
102
}
330
F4277
100
AcDbScale
 70
     0
300
1/4" = 1'-0"
140
0.25
141
12.0
290
     0
  0
SCALE
  5
F4281
102
{ACAD_REACTORS
330
F4277
102
}
330
F4277
100
AcDbScale
 70
     0
300
3/8" = 1'-0"
140
0.375
141
12.0
290
     0
  0
SCALE
  5
F4282
102
{ACAD_REACTORS
330
F4277
102
}
330
F4277
100
AcDbScale
 70
     0
300
1/2" = 1'-0"
140
0.5
141
12.0
290
     0
  0
SCALE
  5
F4283
102
{ACAD_REACTORS
330
F4277
102
}
330
F4277
100
AcDbScale
 70
     0
300
3/4" = 1'-0"
140
0.75
141
12.0
290
     0
  0
SCALE
  5
F4284
102
{ACAD_REACTORS
330
F4277
102
}
330
F4277
100
AcDbScale
 70
     0
300
1" = 1'-0"
140
1.0
141
12.0
290
     0
  0
SCALE
  5
F4285
102
{ACAD_REACTORS
330
F4277
102
}
330
F4277
100
AcDbScale
 70
     0
300
1-1/2" = 1'-0"
140
1.5
141
12.0
290
     0
  0
SCALE
  5
F4286
102
{ACAD_REACTORS
330
F4277
102
}
330
F4277
100
AcDbScale
 70
     0
300
3" = 1'-0"
140
3.0
141
12.0
290
     0
  0
SCALE
  5
F4287
102
{ACAD_REACTORS
330
F4277
102
}
330
F4277
100
AcDbScale
 70
     0
300
6" = 1'-0"
140
6.0
141
12.0
290
     0
  0
SCALE
  5
F4288
102
{ACAD_REACTORS
330
F4277
102
}
330
F4277
100
AcDbScale
 70
     0
300
1'-0" = 1'-0"
140
12.0
141
12.0
290
     0
  0
ACDBSECTIONVIEWSTYLE
  5
F428C
102
{ACAD_XDICTIONARY
360
F42FB
102
}
102
{ACAD_REACTORS
330
F428B
102
}
330
F428B
100
AcDbModelDocViewStyle
 70
     0
  3
Imperial24
290
     0
100
AcDbSectionViewStyle
 70
     0
 71
     0
 90
       78
 71
     1
340
11
 62
   256
 40
0.24
340
0
340
0
 62
   256
 40
0.24
300
I, O, Q, S, X, Z
 40
0.48
 90
        3
 40
0.18
 90
        1
 71
     2
340
16
 90
       25
 62
   256
340
16
 90
       50
 62
   256
 40
0.24
 40
0.0
 40
0.24
 71
     3
340
11
 62
   256
 40
0.24
 90
        1
 40
0.75
 90
        1
300
%<\AcVar ViewType \f "%tc1">% %<\AcVar ViewSectionStartId>%-%<\AcVar ViewSectionEndId>%\PSCALE %<\AcVar ViewScale \f "%sn">%
 71
     4
 62
   256
 62
   257
300
ANSI31
 40
1.0
 90
        0
290
     0
290
     0
 90
        6
 40
0.0
 40
1.570796326794896
 40
0.2617993877991494
 40
1.308996938995747
 40
-0.2617993877991494
 40
1.832595714594046
  0
TABLESTYLE
  5
2B
102
{ACAD_XDICTIONARY
360
F42BB
102
}
102
{ACAD_REACTORS
330
2A
102
}
330
2A
100
AcDbTableStyle
  3
Standard
 70
     0
 71
     0
 40
0.06
 41
0.06
280
     0
281
     0
  7
STANDARD
140
0.18
170
     2
 62
     0
 63
     7
283
     0
274
    -2
284
     1
 64
     0
275
    -2
285
     1
 65
     0
276
    -2
286
     1
 66
     0
277
    -2
287
     1
 67
     0
278
    -2
288
     1
 68
     0
279
    -2
289
     1
 69
     0
  7
STANDARD
140
0.25
170
     5
 62
     0
 63
     7
283
     0
274
    -2
284
     1
 64
     0
275
    -2
285
     1
 65
     0
276
    -2
286
     1
 66
     0
277
    -2
287
     1
 67
     0
278
    -2
288
     1
 68
     0
279
    -2
289
     1
 69
     0
  7
STANDARD
140
0.18
170
     5
 62
     0
 63
     7
283
     0
274
    -2
284
     1
 64
     0
275
    -2
285
     1
 65
     0
276
    -2
286
     1
 66
     0
277
    -2
287
     1
 67
     0
278
    -2
288
     1
 68
     0
279
    -2
289
     1
 69
     0
  0
VISUALSTYLE
  5
F4263
102
{ACAD_XDICTIONARY
360
F42D4
102
}
102
{ACAD_REACTORS
330
F425D
102
}
330
F425D
100
AcDbVisualStyle
  2
2dWireframe
 70
     4
 71
     0
 72
     2
 73
     0
 90
        0
 40
-0.6
 41
-30.0
 62
     5
 63
     7
421
 16777215
 74
     1
 91
        4
 64
     7
 65
   257
 75
     1
175
     1
 42
1.0
 92
        0
 66
   257
 43
1.0
 76
     1
 77
     6
 78
     2
 67
     7
 79
     5
170
     0
171
     0
290
     0
174
     0
 93
        1
 44
0.0
173
     0
291
     0
 45
0.0
1001
ACAD
1000
AcDbSavedByObjectVersion
1070
     0
  0
VISUALSTYLE
  5
F4262
102
{ACAD_XDICTIONARY
360
F42D2
102
}
102
{ACAD_REACTORS
330
F425D
102
}
330
F425D
100
AcDbVisualStyle
  2
Basic
 70
     7
 71
     1
 72
     0
 73
     1
 90
        0
 40
-0.6
 41
-30.0
 62
     5
 63
     7
421
 16777215
 74
     0
 91
        4
 64
     7
 65
   257
 75
     1
175
     1
 42
1.0
 92
        8
 66
     7
 43
1.0
 76
     1
 77
     6
 78
     2
 67
     7
 79
     5
170
     0
171
     0
290
     0
174
     0
 93
        1
 44
0.0
173
     0
291
     1
 45
0.0
1001
ACAD
1000
AcDbSavedByObjectVersion
1070
     0
  0
VISUALSTYLE
  5
F4269
102
{ACAD_XDICTIONARY
360
F42E0
102
}
102
{ACAD_REACTORS
330
F425D
102
}
330
F425D
100
AcDbVisualStyle
  2
Brighten
 70
    12
 71
     2
 72
     2
 73
     0
 90
        0
 40
-0.6
 41
-30.0
 62
     5
 63
     7
421
 16777215
 74
     1
 91
        4
 64
     7
 65
   257
 75
     1
175
     1
 42
1.0
 92
        8
 66
     7
 43
1.0
 76
     1
 77
     6
 78
     2
 67
     7
 79
     5
170
     0
171
     0
290
     0
174
     0
 93
        1
 44
50.0
173
     0
291
     1
 45
0.0
1001
ACAD
1000
AcDbSavedByObjectVersion
1070
     0
  0
VISUALSTYLE
  5
F426D
102
{ACAD_XDICTIONARY
360
F42E8
102
}
102
{ACAD_REACTORS
330
F425D
102
}
330
F425D
100
AcDbVisualStyle
  2
ColorChange
 70
    16
 71
     2
 72
     2
 73
     3
 90
        0
 40
-0.6
 41
-30.0
 62
     5
 63
     8
421
  8421504
 74
     1
 91
        4
 64
     7
 65
   257
 75
     1
175
     1
 42
1.0
 92
        8
 66
     8
424
  8421504
 43
1.0
 76
     1
 77
     6
 78
     2
 67
     7
 79
     5
170
     0
171
     0
290
     0
174
     0
 93
        1
 44
0.0
173
     0
291
     1
 45
0.0
1001
ACAD
1000
AcDbSavedByObjectVersion
1070
     0
  0
VISUALSTYLE
  5
F4266
102
{ACAD_XDICTIONARY
360
F42DA
102
}
102
{ACAD_REACTORS
330
F425D
102
}
330
F425D
100
AcDbVisualStyle
  2
Conceptual
 70
     9
 71
     3
 72
     2
 73
     0
 90
        0
 40
-0.6
 41
-30.0
 62
     5
 63
     7
421
 16777215
 74
     2
 91
        2
 64
     7
 65
   257
 75
     1
175
     1
 42
179.0
 92
        8
 66
     7
 43
1.0
 76
     1
 77
     6
 78
     2
 67
     7
 79
     3
170
     0
171
     0
290
     0
174
     0
 93
        1
 44
0.0
173
     0
291
     0
 45
0.0
1001
ACAD
1000
AcDbSavedByObjectVersion
1070
     0
  0
VISUALSTYLE
  5
F4268
102
{ACAD_XDICTIONARY
360
F42DE
102
}
102
{ACAD_REACTORS
330
F425D
102
}
330
F425D
100
AcDbVisualStyle
  2
Dim
 70
    11
 71
     2
 72
     2
 73
     0
 90
        0
 40
-0.6
 41
-30.0
 62
     5
 63
     7
421
 16777215
 74
     1
 91
        4
 64
     7
 65
   257
 75
     1
175
     1
 42
1.0
 92
        8
 66
     7
 43
1.0
 76
     1
 77
     6
 78
     2
 67
     7
 79
     5
170
     0
171
     0
290
     0
174
     0
 93
        1
 44
-50.0
173
     0
291
     1
 45
0.0
1001
ACAD
1000
AcDbSavedByObjectVersion
1070
     0
  0
VISUALSTYLE
  5
F4275
102
{ACAD_XDICTIONARY
360
F42F8
102
}
102
{ACAD_REACTORS
330
F425D
102
}
330
F425D
100
AcDbVisualStyle
  2
EdgeColorOff
 70
    22
 71
     2
 72
     2
 73
     0
 90
        0
 40
-0.6
 41
-30.0
 62
     5
 63
     7
421
 16777215
 74
     1
 91
        4
 64
     7
 65
   257
 75
     1
175
     1
 42
1.0
 92
        8
 66
     7
 43
1.0
 76
     1
 77
     6
 78
     2
 67
     7
 79
     5
170
     0
171
     0
290
     0
174
     0
 93
        1
 44
0.0
173
     0
291
     1
 45
0.0
1001
ACAD
1000
AcDbSavedByObjectVersion
1070
     0
  0
VISUALSTYLE
  5
F426C
102
{ACAD_XDICTIONARY
360
F42E6
102
}
102
{ACAD_REACTORS
330
F425D
102
}
330
F425D
100
AcDbVisualStyle
  2
Facepattern
 70
    15
 71
     2
 72
     2
 73
     0
 90
        0
 40
-0.6
 41
-30.0
 62
     5
 63
     7
421
 16777215
 74
     1
 91
        4
 64
     7
 65
   257
 75
     1
175
     1
 42
1.0
 92
        8
 66
     7
 43
1.0
 76
     1
 77
     6
 78
     2
 67
     7
 79
     5
170
     0
171
     0
290
     0
174
     0
 93
        1
 44
0.0
173
     0
291
     1
 45
0.0
1001
ACAD
1000
AcDbSavedByObjectVersion
1070
     0
  0
VISUALSTYLE
  5
F425E
102
{ACAD_XDICTIONARY
360
F42CA
102
}
102
{ACAD_REACTORS
330
F425D
102
}
330
F425D
100
AcDbVisualStyle
  2
Flat
 70
     0
 71
     2
 72
     1
 73
     1
 90
        2
 40
-0.6
 41
30.0
 62
     5
 63
     7
421
 16777215
 74
     0
 91
        0
 64
     7
 65
   257
 75
     1
175
     1
 42
1.0
 92
        8
 66
     7
 43
1.0
 76
     1
 77
     6
 78
     2
 67
     7
 79
     5
170
     0
171
     0
290
     0
174
     0
 93
       13
 44
0.0
173
     0
291
     1
 45
0.0
1001
ACAD
1000
AcDbSavedByObjectVersion
1070
     0
  0
VISUALSTYLE
  5
F425F
102
{ACAD_XDICTIONARY
360
F42CC
102
}
102
{ACAD_REACTORS
330
F425D
102
}
330
F425D
100
AcDbVisualStyle
  2
FlatWithEdges
 70
     1
 71
     2
 72
     1
 73
     1
 90
        2
 40
-0.6
 41
30.0
 62
     5
 63
     7
421
 16777215
 74
     1
 91
        0
 64
     7
 65
   257
 75
     1
175
     1
 42
1.0
 92
        0
 66
   257
 43
1.0
 76
     1
 77
     6
 78
     2
 67
     7
 79
     5
170
     0
171
     0
290
     0
174
     0
 93
       13
 44
0.0
173
     0
291
     1
 45
0.0
1001
ACAD
1000
AcDbSavedByObjectVersion
1070
     0
  0
VISUALSTYLE
  5
F4260
102
{ACAD_XDICTIONARY
360
F42CE
102
}
102
{ACAD_REACTORS
330
F425D
102
}
330
F425D
100
AcDbVisualStyle
  2
Gouraud
 70
     2
 71
     2
 72
     2
 73
     1
 90
        2
 40
-0.6
 41
30.0
 62
     5
 63
     7
421
 16777215
 74
     0
 91
        0
 64
     7
 65
   257
 75
     1
175
     1
 42
1.0
 92
        0
 66
     7
 43
1.0
 76
     1
 77
     6
 78
     2
 67
     7
 79
     5
170
     0
171
     0
290
     0
174
     0
 93
       13
 44
0.0
173
     0
291
     1
 45
0.0
1001
ACAD
1000
AcDbSavedByObjectVersion
1070
     0
  0
VISUALSTYLE
  5
F4261
102
{ACAD_XDICTIONARY
360
F42D0
102
}
102
{ACAD_REACTORS
330
F425D
102
}
330
F425D
100
AcDbVisualStyle
  2
GouraudWithEdges
 70
     3
 71
     2
 72
     2
 73
     1
 90
        2
 40
-0.6
 41
30.0
 62
     5
 63
     7
421
 16777215
 74
     1
 91
        0
 64
     7
 65
   257
 75
     1
175
     1
 42
1.0
 92
        0
 66
   257
 43
1.0
 76
     1
 77
     6
 78
     2
 67
     7
 79
     5
170
     0
171
     0
290
     0
174
     0
 93
       13
 44
0.0
173
     0
291
     1
 45
0.0
1001
ACAD
1000
AcDbSavedByObjectVersion
1070
     0
  0
VISUALSTYLE
  5
F4265
102
{ACAD_XDICTIONARY
360
F42D8
102
}
102
{ACAD_REACTORS
330
F425D
102
}
330
F425D
100
AcDbVisualStyle
  2
Hidden
 70
     6
 71
     1
 72
     2
 73
     2
 90
        0
 40
-0.6
 41
-30.0
 62
     5
 63
     7
421
 16777215
 74
     2
 91
        2
 64
     7
 65
   257
 75
     2
175
     1
 42
40.0
 92
        0
 66
   257
 43
1.0
 76
     1
 77
     6
 78
     2
 67
     7
 79
     3
170
     0
171
     0
290
     0
174
     0
 93
        1
 44
0.0
173
     0
291
     0
 45
0.0
1001
ACAD
1000
AcDbSavedByObjectVersion
1070
     0
  0
VISUALSTYLE
  5
F4273
102
{ACAD_XDICTIONARY
360
F42F4
102
}
102
{ACAD_REACTORS
330
F425D
102
}
330
F425D
100
AcDbVisualStyle
  2
JitterOff
 70
    20
 71
     2
 72
     2
 73
     0
 90
        0
 40
-0.6
 41
-30.0
 62
     5
 63
     7
421
 16777215
 74
     1
 91
        4
 64
     7
 65
   257
 75
     1
175
     1
 42
1.0
 92
       10
 66
     7
 43
1.0
 76
     1
 77
     6
 78
     2
 67
     7
 79
     5
170
     0
171
     0
290
     0
174
     0
 93
        1
 44
0.0
173
     0
291
     1
 45
0.0
1001
ACAD
1000
AcDbSavedByObjectVersion
1070
     0
  0
VISUALSTYLE
  5
F426B
102
{ACAD_XDICTIONARY
360
F42E4
102
}
102
{ACAD_REACTORS
330
F425D
102
}
330
F425D
100
AcDbVisualStyle
  2
Linepattern
 70
    14
 71
     2
 72
     2
 73
     0
 90
        0
 40
-0.6
 41
-30.0
 62
     5
 63
     7
421
 16777215
 74
     1
 91
        4
 64
     7
 65
   257
 75
     7
175
     7
 42
1.0
 92
        8
 66
     7
 43
1.0
 76
     1
 77
     6
 78
     2
 67
     7
 79
     5
170
     0
171
     0
290
     0
174
     0
 93
        1
 44
0.0
173
     0
291
     1
 45
0.0
1001
ACAD
1000
AcDbSavedByObjectVersion
1070
     0
  0
VISUALSTYLE
  5
F4274
102
{ACAD_XDICTIONARY
360
F42F6
102
}
102
{ACAD_REACTORS
330
F425D
102
}
330
F425D
100
AcDbVisualStyle
  2
OverhangOff
 70
    21
 71
     2
 72
     2
 73
     0
 90
        0
 40
-0.6
 41
-30.0
 62
     5
 63
     7
421
 16777215
 74
     1
 91
        4
 64
     7
 65
   257
 75
     1
175
     1
 42
1.0
 92
        9
 66
     7
 43
1.0
 76
     1
 77
     6
 78
     2
 67
     7
 79
     5
170
     0
171
     0
290
     0
174
     0
 93
        1
 44
0.0
173
     0
291
     1
 45
0.0
1001
ACAD
1000
AcDbSavedByObjectVersion
1070
     0
  0
VISUALSTYLE
  5
F4267
102
{ACAD_XDICTIONARY
360
F42DC
102
}
102
{ACAD_REACTORS
330
F425D
102
}
330
F425D
100
AcDbVisualStyle
  2
Realistic
 70
     8
 71
     2
 72
     3
 73
     0
 90
        2
 40
-0.6
 41
30.0
 62
     5
 63
     7
421
 16777215
 74
     0
 91
        0
 64
     7
 65
   257
 75
     1
175
     1
 42
1.0
 92
        8
 66
   257
 43
1.0
 76
     1
 77
     6
 78
     2
 67
     7
 79
     3
170
     0
171
     0
290
     0
174
     0
 93
       13
 44
0.0
173
     0
291
     0
 45
0.0
1001
ACAD
1000
AcDbSavedByObjectVersion
1070
     0
  0
VISUALSTYLE
  5
F4272
102
{ACAD_XDICTIONARY
360
F42F2
102
}
102
{ACAD_REACTORS
330
F425D
102
}
330
F425D
100
AcDbVisualStyle
  2
Shaded
 70
    27
 71
     2
 72
     2
 73
     1
 90
        2
 40
-0.6
 41
30.0
 62
     5
 63
     7
421
 16777215
 74
     0
 91
        4
 64
     7
 65
   257
 75
     1
175
     1
 42
1.0
 92
        8
 66
   257
 43
1.0
 76
     1
 77
     6
 78
     2
 67
     8
425
  7895160
 79
     3
170
     0
171
     0
290
     0
174
     0
 93
        5
 44
0.0
173
     0
291
     0
 45
0.0
1001
ACAD
1000
AcDbSavedByObjectVersion
1070
     0
  0
VISUALSTYLE
  5
F4271
102
{ACAD_XDICTIONARY
360
F42F0
102
}
102
{ACAD_REACTORS
330
F425D
102
}
330
F425D
100
AcDbVisualStyle
  2
Shaded with edges
 70
    26
 71
     2
 72
     2
 73
     1
 90
        2
 40
-0.6
 41
30.0
 62
     5
 63
     7
421
 16777215
 74
     1
 91
       10
 64
     7
 65
   257
 75
     2
175
     1
 42
1.0
 92
        8
 66
   257
 43
1.0
 76
     1
 77
     6
 78
     2
 67
     7
 79
     3
170
     0
171
     0
290
     0
174
     0
 93
        5
 44
0.0
173
     0
291
     0
 45
0.0
1001
ACAD
1000
AcDbSavedByObjectVersion
1070
     0
  0
VISUALSTYLE
  5
F426E
102
{ACAD_XDICTIONARY
360
F42EA
102
}
102
{ACAD_REACTORS
330
F425D
102
}
330
F425D
100
AcDbVisualStyle
  2
Shades of Gray
 70
    23
 71
     2
 72
     2
 73
     3
 90
        0
 40
-0.6
 41
-30.0
 62
     5
 63
     7
421
 16777215
 74
     2
 91
        2
 64
     7
 65
     7
 75
     1
175
     1
 42
40.0
 92
        8
 66
     7
 43
1.0
 76
     1
 77
     6
 78
     2
 67
     7
 79
     3
170
     0
171
     0
290
     0
174
     0
 93
        1
 44
0.0
173
     0
291
     0
 45
0.0
1001
ACAD
1000
AcDbSavedByObjectVersion
1070
     0
  0
VISUALSTYLE
  5
F426F
102
{ACAD_XDICTIONARY
360
F42EC
102
}
102
{ACAD_REACTORS
330
F425D
102
}
330
F425D
100
AcDbVisualStyle
  2
Sketchy
 70
    24
 71
     1
 72
     2
 73
     2
 90
        0
 40
-0.6
 41
-30.0
 62
     5
 63
     7
421
 16777215
 74
     2
 91
        2
 64
     7
 65
     7
 75
     1
175
     1
 42
40.0
 92
       11
 66
     7
 43
1.0
 76
     1
 77
     6
 78
     2
 67
     7
 79
     6
170
     0
171
     0
290
     0
174
     0
 93
        1
 44
0.0
173
     0
291
     0
 45
0.0
1001
ACAD
1000
AcDbSavedByObjectVersion
1070
     0
  0
VISUALSTYLE
  5
F426A
102
{ACAD_XDICTIONARY
360
F42E2
102
}
102
{ACAD_REACTORS
330
F425D
102
}
330
F425D
100
AcDbVisualStyle
  2
Thicken
 70
    13
 71
     2
 72
     2
 73
     0
 90
        0
 40
-0.6
 41
-30.0
 62
     5
 63
     7
421
 16777215
 74
     1
 91
        4
 64
     7
 65
   257
 75
     1
175
     1
 42
1.0
 92
       12
 66
     7
 43
1.0
 76
     1
 77
     6
 78
     2
 67
     7
 79
     5
170
     0
171
     0
290
     0
174
     0
 93
        1
 44
0.0
173
     0
291
     1
 45
0.0
1001
ACAD
1000
AcDbSavedByObjectVersion
1070
     0
  0
VISUALSTYLE
  5
F4264
102
{ACAD_XDICTIONARY
360
F42D6
102
}
102
{ACAD_REACTORS
330
F425D
102
}
330
F425D
100
AcDbVisualStyle
  2
Wireframe
 70
     5
 71
     0
 72
     2
 73
     0
 90
        0
 40
-0.6
 41
-30.0
 62
     5
 63
     7
421
 16777215
 74
     1
 91
        4
 64
     7
 65
   257
 75
     1
175
     1
 42
1.0
 92
        0
 66
   257
 43
1.0
 76
     1
 77
     6
 78
     2
 67
     7
 79
     3
170
     0
171
     0
290
     0
174
     0
 93
        1
 44
0.0
173
     0
291
     0
 45
0.0
1001
ACAD
1000
AcDbSavedByObjectVersion
1070
     0
  0
VISUALSTYLE
  5
F4270
102
{ACAD_XDICTIONARY
360
F42EE
102
}
102
{ACAD_REACTORS
330
F425D
102
}
330
F425D
100
AcDbVisualStyle
  2
X-Ray
 70
    25
 71
     2
 72
     2
 73
     1
 90
        1
 40
0.5
 41
-30.0
 62
     5
 63
     7
421
 16777215
 74
     1
 91
        0
 64
     7
 65
   257
 75
     1
175
     1
 42
1.0
 92
        8
 66
     7
 43
1.0
 76
     1
 77
     6
 78
     2
 67
     7
 79
     3
170
     0
171
     0
290
     0
174
     0
 93
       13
 44
0.0
173
     0
291
     0
 45
0.0
1001
ACAD
1000
AcDbSavedByObjectVersion
1070
     0
  0
DICTIONARYVAR
  5
F42B8
102
{ACAD_REACTORS
330
2C
102
}
330
2C
100
DictionaryVariables
280
     0
  1
1:1
  0
DICTIONARYVAR
  5
F42B5
102
{ACAD_REACTORS
330
2C
102
}
330
2C
100
DictionaryVariables
280
     0
  1
STANDARD
  0
DICTIONARYVAR
  5
2D
102
{ACAD_REACTORS
330
2C
102
}
330
2C
100
DictionaryVariables
280
     0
  1
STANDARD
  0
DICTIONARYVAR
  5
F42B6
102
{ACAD_REACTORS
330
2C
102
}
330
2C
100
DictionaryVariables
280
     0
  1
Imperial24
  0
DICTIONARYVAR
  5
F42B7
102
{ACAD_REACTORS
330
2C
102
}
330
2C
100
DictionaryVariables
280
     0
  1
Imperial24
  0
DICTIONARYVAR
  5
F42B9
102
{ACAD_REACTORS
330
2C
102
}
330
2C
100
DictionaryVariables
280
     0
  1
2
  0
DICTIONARY
  5
F42C5
102
{ACAD_REACTORS
330
F42C3
102
}
330
F42C3
100
AcDbDictionary
281
     1
  0
DICTIONARY
  5
F42C4
102
{ACAD_REACTORS
330
F42C3
102
}
330
F42C3
100
AcDbDictionary
281
     1
  3
140481218878176
350
F42BE
  3
140481218878192
350
F42BF
  3
140481218878208
350
F42C0
  3
140481218878224
350
F42C1
  3
140481218878240
350
F42C2
  0
DICTIONARY
  5
F42FD
330
F428E
100
AcDbDictionary
280
     1
281
     1
  3
ACAD_XREC_ROUNDTRIP
360
F42FE
  0
DICTIONARY
  5
F424E
330
F424D
100
AcDbDictionary
280
     1
281
     1
  3
ACAD_XREC_ROUNDTRIP
360
F42C8
  3
BUMPTILE
360
F4250
  3
DIFFUSETILE
360
F424F
  3
OPACITYTILE
360
F4253
  3
REFLECTIONTILE
360
F4252
  3
REFRACTIONTILE
360
F4254
  3
SPECULARTILE
360
F4251
  0
DICTIONARY
  5
F4246
330
F4245
100
AcDbDictionary
280
     1
281
     1
  3
ACAD_XREC_ROUNDTRIP
360
F42C7
  3
BUMPTILE
360
F4248
  3
DIFFUSETILE
360
F4247
  3
OPACITYTILE
360
F424B
  3
REFLECTIONTILE
360
F424A
  3
REFRACTIONTILE
360
F424C
  3
SPECULARTILE
360
F4249
  0
DICTIONARY
  5
F4256
330
F4255
100
AcDbDictionary
280
     1
281
     1
  3
ACAD_XREC_ROUNDTRIP
360
F42C9
  3
BUMPTILE
360
F4258
  3
DIFFUSETILE
360
F4257
  3
OPACITYTILE
360
F425B
  3
REFLECTIONTILE
360
F425A
  3
REFRACTIONTILE
360
F425C
  3
SPECULARTILE
360
F4259
  0
DICTIONARY
  5
F42FB
330
F428C
100
AcDbDictionary
280
     1
281
     1
  3
ACAD_XREC_ROUNDTRIP
360
F42FC
  0
DICTIONARY
  5
F42BB
330
2B
100
AcDbDictionary
280
     1
281
     1
  3
ACAD_ROUNDTRIP_2008_TABLESTYLE_CELLSTYLEMAP
360
F42BC
  3
ACAD_XREC_ROUNDTRIP
360
F42C6
  0
DICTIONARY
  5
F42D4
330
F4263
100
AcDbDictionary
280
     1
281
     1
  3
ACAD_XREC_ROUNDTRIP
360
F42D5
  0
DICTIONARY
  5
F42D2
330
F4262
100
AcDbDictionary
280
     1
281
     1
  3
ACAD_XREC_ROUNDTRIP
360
F42D3
  0
DICTIONARY
  5
F42E0
330
F4269
100
AcDbDictionary
280
     1
281
     1
  3
ACAD_XREC_ROUNDTRIP
360
F42E1
  0
DICTIONARY
  5
F42E8
330
F426D
100
AcDbDictionary
280
     1
281
     1
  3
ACAD_XREC_ROUNDTRIP
360
F42E9
  0
DICTIONARY
  5
F42DA
330
F4266
100
AcDbDictionary
280
     1
281
     1
  3
ACAD_XREC_ROUNDTRIP
360
F42DB
  0
DICTIONARY
  5
F42DE
330
F4268
100
AcDbDictionary
280
     1
281
     1
  3
ACAD_XREC_ROUNDTRIP
360
F42DF
  0
DICTIONARY
  5
F42F8
330
F4275
100
AcDbDictionary
280
     1
281
     1
  3
ACAD_XREC_ROUNDTRIP
360
F42F9
  0
DICTIONARY
  5
F42E6
330
F426C
100
AcDbDictionary
280
     1
281
     1
  3
ACAD_XREC_ROUNDTRIP
360
F42E7
  0
DICTIONARY
  5
F42CA
330
F425E
100
AcDbDictionary
280
     1
281
     1
  3
ACAD_XREC_ROUNDTRIP
360
F42CB
  0
DICTIONARY
  5
F42CC
330
F425F
100
AcDbDictionary
280
     1
281
     1
  3
ACAD_XREC_ROUNDTRIP
360
F42CD
  0
DICTIONARY
  5
F42CE
330
F4260
100
AcDbDictionary
280
     1
281
     1
  3
ACAD_XREC_ROUNDTRIP
360
F42CF
  0
DICTIONARY
  5
F42D0
330
F4261
100
AcDbDictionary
280
     1
281
     1
  3
ACAD_XREC_ROUNDTRIP
360
F42D1
  0
DICTIONARY
  5
F42D8
330
F4265
100
AcDbDictionary
280
     1
281
     1
  3
ACAD_XREC_ROUNDTRIP
360
F42D9
  0
DICTIONARY
  5
F42F4
330
F4273
100
AcDbDictionary
280
     1
281
     1
  3
ACAD_XREC_ROUNDTRIP
360
F42F5
  0
DICTIONARY
  5
F42E4
330
F426B
100
AcDbDictionary
280
     1
281
     1
  3
ACAD_XREC_ROUNDTRIP
360
F42E5
  0
DICTIONARY
  5
F42F6
330
F4274
100
AcDbDictionary
280
     1
281
     1
  3
ACAD_XREC_ROUNDTRIP
360
F42F7
  0
DICTIONARY
  5
F42DC
330
F4267
100
AcDbDictionary
280
     1
281
     1
  3
ACAD_XREC_ROUNDTRIP
360
F42DD
  0
DICTIONARY
  5
F42F2
330
F4272
100
AcDbDictionary
280
     1
281
     1
  3
ACAD_XREC_ROUNDTRIP
360
F42F3
  0
DICTIONARY
  5
F42F0
330
F4271
100
AcDbDictionary
280
     1
281
     1
  3
ACAD_XREC_ROUNDTRIP
360
F42F1
  0
DICTIONARY
  5
F42EA
330
F426E
100
AcDbDictionary
280
     1
281
     1
  3
ACAD_XREC_ROUNDTRIP
360
F42EB
  0
DICTIONARY
  5
F42EC
330
F426F
100
AcDbDictionary
280
     1
281
     1
  3
ACAD_XREC_ROUNDTRIP
360
F42ED
  0
DICTIONARY
  5
F42E2
330
F426A
100
AcDbDictionary
280
     1
281
     1
  3
ACAD_XREC_ROUNDTRIP
360
F42E3
  0
DICTIONARY
  5
F42D6
330
F4264
100
AcDbDictionary
280
     1
281
     1
  3
ACAD_XREC_ROUNDTRIP
360
F42D7
  0
DICTIONARY
  5
F42EE
330
F4270
100
AcDbDictionary
280
     1
281
     1
  3
ACAD_XREC_ROUNDTRIP
360
F42EF
  0
XRECORD
  5
F42BE
102
{ACAD_REACTORS
330
F42C4
102
}
330
F42C4
100
AcDbXrecord
280
     1
  1
AcDb_Thumbnail_Schema
102
{ATTRRECORD
341
F42BF
  2
AcDbDs::TreatedAsObjectData
280
     1
291
     1
102
ATTRRECORD}
102
{ATTRRECORD
341
F42C0
  2
AcDbDs::Legacy
280
     1
291
     1
102
ATTRRECORD}
  2
AcDbDs::ID
280
    10
 91
        8
102
{ATTRRECORD
341
F42C1
  2
AcDs:Indexable
280
     1
291
     1
102
ATTRRECORD}
102
{ATTRRECORD
341
F42C2
  2
AcDbDs::HandleAttribute
280
     7
282
     1
102
ATTRRECORD}
  2
Thumbnail_Data
280
    15
 91
        0
  0
XRECORD
  5
F42BF
102
{ACAD_REACTORS
330
F42C4
102
}
330
F42C4
100
AcDbXrecord
280
     1
  1
AcDbDs::TreatedAsObjectDataSchema
  2
AcDbDs::TreatedAsObjectData
280
     1
 91
        0
  0
XRECORD
  5
F42C0
102
{ACAD_REACTORS
330
F42C4
102
}
330
F42C4
100
AcDbXrecord
280
     1
  1
AcDbDs::LegacySchema
  2
AcDbDs::Legacy
280
     1
 91
        0
  0
XRECORD
  5
F42C1
102
{ACAD_REACTORS
330
F42C4
102
}
330
F42C4
100
AcDbXrecord
280
     1
  1
AcDbDs::IndexedPropertySchema
  2
AcDs:Indexable
280
     1
 91
        0
  0
XRECORD
  5
F42C2
102
{ACAD_REACTORS
330
F42C4
102
}
330
F42C4
100
AcDbXrecord
280
     1
  1
AcDbDs::HandleAttributeSchema
  2
AcDbDs::HandleAttribute
280
     7
 91
        1
284
     1
  0
XRECORD
  5
F42FE
102
{ACAD_REACTORS
330
F42FD
102
}
330
F42FD
100
AcDbXrecord
280
     1
102
DISPLAYNAME
  1
Imperial24
102
FLAGS
 90
        0
  0
XRECORD
  5
F42C8
102
{ACAD_REACTORS
330
F424E
102
}
330
F424E
100
AcDbXrecord
280
     1
102
MATERIAL
148
0.0
149
0.0
149
0.0
 93
        0
 94
      127
282
     0
 72
     0
 77
     0
171
     0
175
     0
179
     0
273
     0
  0
XRECORD
  5
F4250
102
{ACAD_REACTORS
330
F424E
102
}
330
F424E
100
AcDbXrecord
280
     1
270
     1
271
     1
  0
XRECORD
  5
F424F
102
{ACAD_REACTORS
330
F424E
102
}
330
F424E
100
AcDbXrecord
280
     1
270
     1
271
     1
  0
XRECORD
  5
F4253
102
{ACAD_REACTORS
330
F424E
102
}
330
F424E
100
AcDbXrecord
280
     1
270
     1
271
     1
  0
XRECORD
  5
F4252
102
{ACAD_REACTORS
330
F424E
102
}
330
F424E
100
AcDbXrecord
280
     1
270
     1
271
     1
  0
XRECORD
  5
F4254
102
{ACAD_REACTORS
330
F424E
102
}
330
F424E
100
AcDbXrecord
280
     1
270
     1
271
     1
  0
XRECORD
  5
F4251
102
{ACAD_REACTORS
330
F424E
102
}
330
F424E
100
AcDbXrecord
280
     1
270
     1
271
     1
  0
XRECORD
  5
F42C7
102
{ACAD_REACTORS
330
F4246
102
}
330
F4246
100
AcDbXrecord
280
     1
102
MATERIAL
148
0.0
149
0.0
149
0.0
 93
        0
 94
      127
282
     0
 72
     0
 77
     0
171
     0
175
     0
179
     0
273
     0
  0
XRECORD
  5
F4248
102
{ACAD_REACTORS
330
F4246
102
}
330
F4246
100
AcDbXrecord
280
     1
270
     1
271
     1
  0
XRECORD
  5
F4247
102
{ACAD_REACTORS
330
F4246
102
}
330
F4246
100
AcDbXrecord
280
     1
270
     1
271
     1
  0
XRECORD
  5
F424B
102
{ACAD_REACTORS
330
F4246
102
}
330
F4246
100
AcDbXrecord
280
     1
270
     1
271
     1
  0
XRECORD
  5
F424A
102
{ACAD_REACTORS
330
F4246
102
}
330
F4246
100
AcDbXrecord
280
     1
270
     1
271
     1
  0
XRECORD
  5
F424C
102
{ACAD_REACTORS
330
F4246
102
}
330
F4246
100
AcDbXrecord
280
     1
270
     1
271
     1
  0
XRECORD
  5
F4249
102
{ACAD_REACTORS
330
F4246
102
}
330
F4246
100
AcDbXrecord
280
     1
270
     1
271
     1
  0
XRECORD
  5
F42C9
102
{ACAD_REACTORS
330
F4256
102
}
330
F4256
100
AcDbXrecord
280
     1
102
MATERIAL
148
0.0
149
0.0
149
0.0
 93
        0
 94
      127
282
     0
 72
     0
 77
     0
171
     0
175
     0
179
     0
273
     0
  0
XRECORD
  5
F4258
102
{ACAD_REACTORS
330
F4256
102
}
330
F4256
100
AcDbXrecord
280
     1
270
     1
271
     1
  0
XRECORD
  5
F4257
102
{ACAD_REACTORS
330
F4256
102
}
330
F4256
100
AcDbXrecord
280
     1
270
     1
271
     1
  0
XRECORD
  5
F425B
102
{ACAD_REACTORS
330
F4256
102
}
330
F4256
100
AcDbXrecord
280
     1
270
     1
271
     1
  0
XRECORD
  5
F425A
102
{ACAD_REACTORS
330
F4256
102
}
330
F4256
100
AcDbXrecord
280
     1
270
     1
271
     1
  0
XRECORD
  5
F425C
102
{ACAD_REACTORS
330
F4256
102
}
330
F4256
100
AcDbXrecord
280
     1
270
     1
271
     1
  0
XRECORD
  5
F4259
102
{ACAD_REACTORS
330
F4256
102
}
330
F4256
100
AcDbXrecord
280
     1
270
     1
271
     1
  0
XRECORD
  5
F42FC
102
{ACAD_REACTORS
330
F42FB
102
}
330
F42FB
100
AcDbXrecord
280
     1
102
DISPLAYNAME
  1
Imperial24
102
FLAGS
 90
        0
  0
CELLSTYLEMAP
  5
F42BC
102
{ACAD_REACTORS
330
F42BB
102
}
330
F42BB
100
AcDbCellStyleMap
 90
        3
300
CELLSTYLE
  1
TABLEFORMAT_BEGIN
 90
        5
170
     1
 91
        0
 92
    32768
 62
   257
 93
        1
300
CONTENTFORMAT
  1
CONTENTFORMAT_BEGIN
 90
        0
 91
        0
 92
        4
 93
        0
300

 40
0.0
140
1.0
 94
        5
 62
     0
340
11
144
0.25
309
CONTENTFORMAT_END
171
     0
 94
        6
 95
        1
302
GRIDFORMAT
  1
GRIDFORMAT_BEGIN
 90
        0
 91
        1
 62
     0
 92
       -2
340
0
 93
        0
 40
0.045
309
GRIDFORMAT_END
 95
        2
302
GRIDFORMAT
  1
GRIDFORMAT_BEGIN
 90
        0
 91
        1
 62
     0
 92
       -2
340
0
 93
        0
 40
0.045
309
GRIDFORMAT_END
 95
        4
302
GRIDFORMAT
  1
GRIDFORMAT_BEGIN
 90
        0
 91
        1
 62
     0
 92
       -2
340
0
 93
        0
 40
0.045
309
GRIDFORMAT_END
 95
        8
302
GRIDFORMAT
  1
GRIDFORMAT_BEGIN
 90
        0
 91
        1
 62
     0
 92
       -2
340
0
 93
        0
 40
0.045
309
GRIDFORMAT_END
 95
       16
302
GRIDFORMAT
  1
GRIDFORMAT_BEGIN
 90
        0
 91
        1
 62
     0
 92
       -2
340
0
 93
        0
 40
0.045
309
GRIDFORMAT_END
 95
       32
302
GRIDFORMAT
  1
GRIDFORMAT_BEGIN
 90
        0
 91
        1
 62
     0
 92
       -2
340
0
 93
        0
 40
0.045
309
GRIDFORMAT_END
309
TABLEFORMAT_END
  1
CELLSTYLE_BEGIN
 90
        1
 91
        1
300
_TITLE
309
CELLSTYLE_END
300
CELLSTYLE
  1
TABLEFORMAT_BEGIN
 90
        5
170
     1
 91
        0
 92
        0
 62
   257
 93
        1
300
CONTENTFORMAT
  1
CONTENTFORMAT_BEGIN
 90
        0
 91
        0
 92
        4
 93
        0
300

 40
0.0
140
1.0
 94
        5
 62
     0
340
11
144
0.18
309
CONTENTFORMAT_END
171
     0
 94
        6
 95
        1
302
GRIDFORMAT
  1
GRIDFORMAT_BEGIN
 90
        0
 91
        1
 62
     0
 92
       -2
340
0
 93
        0
 40
0.045
309
GRIDFORMAT_END
 95
        2
302
GRIDFORMAT
  1
GRIDFORMAT_BEGIN
 90
        0
 91
        1
 62
     0
 92
       -2
340
0
 93
        0
 40
0.045
309
GRIDFORMAT_END
 95
        4
302
GRIDFORMAT
  1
GRIDFORMAT_BEGIN
 90
        0
 91
        1
 62
     0
 92
       -2
340
0
 93
        0
 40
0.045
309
GRIDFORMAT_END
 95
        8
302
GRIDFORMAT
  1
GRIDFORMAT_BEGIN
 90
        0
 91
        1
 62
     0
 92
       -2
340
0
 93
        0
 40
0.045
309
GRIDFORMAT_END
 95
       16
302
GRIDFORMAT
  1
GRIDFORMAT_BEGIN
 90
        0
 91
        1
 62
     0
 92
       -2
340
0
 93
        0
 40
0.045
309
GRIDFORMAT_END
 95
       32
302
GRIDFORMAT
  1
GRIDFORMAT_BEGIN
 90
        0
 91
        1
 62
     0
 92
       -2
340
0
 93
        0
 40
0.045
309
GRIDFORMAT_END
309
TABLEFORMAT_END
  1
CELLSTYLE_BEGIN
 90
        2
 91
        1
300
_HEADER
309
CELLSTYLE_END
300
CELLSTYLE
  1
TABLEFORMAT_BEGIN
 90
        5
170
     1
 91
        0
 92
        0
 62
   257
 93
        1
300
CONTENTFORMAT
  1
CONTENTFORMAT_BEGIN
 90
        0
 91
        0
 92
        4
 93
        0
300

 40
0.0
140
1.0
 94
        2
 62
     0
340
11
144
0.18
309
CONTENTFORMAT_END
171
     0
 94
        6
 95
        1
302
GRIDFORMAT
  1
GRIDFORMAT_BEGIN
 90
        0
 91
        1
 62
     0
 92
       -2
340
0
 93
        0
 40
0.045
309
GRIDFORMAT_END
 95
        2
302
GRIDFORMAT
  1
GRIDFORMAT_BEGIN
 90
        0
 91
        1
 62
     0
 92
       -2
340
0
 93
        0
 40
0.045
309
GRIDFORMAT_END
 95
        4
302
GRIDFORMAT
  1
GRIDFORMAT_BEGIN
 90
        0
 91
        1
 62
     0
 92
       -2
340
0
 93
        0
 40
0.045
309
GRIDFORMAT_END
 95
        8
302
GRIDFORMAT
  1
GRIDFORMAT_BEGIN
 90
        0
 91
        1
 62
     0
 92
       -2
340
0
 93
        0
 40
0.045
309
GRIDFORMAT_END
 95
       16
302
GRIDFORMAT
  1
GRIDFORMAT_BEGIN
 90
        0
 91
        1
 62
     0
 92
       -2
340
0
 93
        0
 40
0.045
309
GRIDFORMAT_END
 95
       32
302
GRIDFORMAT
  1
GRIDFORMAT_BEGIN
 90
        0
 91
        1
 62
     0
 92
       -2
340
0
 93
        0
 40
0.045
309
GRIDFORMAT_END
309
TABLEFORMAT_END
  1
CELLSTYLE_BEGIN
 90
        3
 91
        2
300
_DATA
309
CELLSTYLE_END
  0
XRECORD
  5
F42C6
102
{ACAD_REACTORS
330
F42BB
102
}
330
F42BB
100
AcDbXrecord
280
     1
102
ACAD_ROUNDTRIP_PRE2007_TABLESTYLE
 90
        4
 91
        0
  1

 92
        4
 93
        0
  2

 94
        4
 95
        0
  3

  0
XRECORD
  5
F42D5
102
{ACAD_REACTORS
330
F42D4
102
}
330
F42D4
100
AcDbXrecord
280
     1
102
RTVSPost2010Prop28
280
     1
102
RTVSPost2010PropOp28
 70
     1
102
RTVSPost2010Prop29
280
     1
102
RTVSPost2010PropOp29
 70
     1
102
RTVSPost2010Prop30
280
     0
102
RTVSPost2010PropOp30
 70
     1
102
RTVSPost2010Prop31
280
     0
102
RTVSPost2010PropOp31
 70
     1
102
RTVSPost2010Prop32
280
     0
102
RTVSPost2010PropOp32
 70
     1
102
RTVSPost2010Prop33
280
     0
102
RTVSPost2010PropOp33
 70
     1
102
RTVSPost2010Prop34
280
     0
102
RTVSPost2010PropOp34
 70
     1
102
RTVSPost2010Prop35
280
     0
102
RTVSPost2010PropOp35
 70
     1
102
RTVSPost2010Prop36
280
     0
102
RTVSPost2010PropOp36
 70
     1
102
RTVSPost2010Prop37
 90
       50
102
RTVSPost2010PropOp37
 70
     1
102
RTVSPost2010Prop38
140
0.0
102
RTVSPost2010PropOp38
 70
     1
102
RTVSPost2010Prop39
140
1.0
102
RTVSPost2010PropOp39
 70
     1
102
RTVSPost2010Prop40
 90
        0
102
RTVSPost2010PropOp40
 70
     1
102
RTVSPost2010Prop41ColorIndex
 90
       18
102
RTVSPost2010Prop41ColorRGB
 90
        0
102
RTVSPost2010PropOp41
 70
     1
102
RTVSPost2010Prop42
 90
       50
102
RTVSPost2010PropOp42
 70
     1
102
RTVSPost2010Prop43
 90
        3
102
RTVSPost2010PropOp43
 70
     1
102
RTVSPost2010Prop44ColorIndex
 90
        5
102
RTVSPost2010Prop44ColorRGB
 90
      255
102
RTVSPost2010PropOp44
 70
     1
102
RTVSPost2010Prop45
280
     0
102
RTVSPost2010PropOp45
 70
     1
102
RTVSPost2010Prop46
 90
       50
102
RTVSPost2010PropOp46
 70
     1
102
RTVSPost2010Prop47
 90
       50
102
RTVSPost2010PropOp47
 70
     1
102
RTVSPost2010Prop48
 90
       50
102
RTVSPost2010PropOp48
 70
     1
102
RTVSPost2010Prop49
280
     0
102
RTVSPost2010PropOp49
 70
     1
102
RTVSPost2010Prop50
 90
       50
102
RTVSPost2010PropOp50
 70
     1
102
RTVSPost2010Prop51ColorIndex
 90
      256
102
RTVSPost2010Prop51ColorRGB
 90
-16777216
102
RTVSPost2010PropOp51
 70
     0
102
RTVSPost2010Prop52
140
1.0
102
RTVSPost2010PropOp52
 70
     0
102
RTVSPost2010Prop53
 90
        2
102
RTVSPost2010PropOp53
 70
     1
102
RTVSPost2010Prop54
  1
strokes_ogs.tif
102
RTVSPost2010PropOp54
 70
     1
102
RTVSPost2010Prop55
280
     0
102
RTVSPost2010PropOp55
 70
     1
102
RTVSPost2010Prop56
140
1.0
102
RTVSPost2010PropOp56
 70
     1
102
RTVSPost2010Prop57
140
1.0
102
RTVSPost2010PropOp57
 70
     1
102
RTVSPropertyOp0
 70
     1
102
RTVSPropertyOp1
 70
     1
102
RTVSPropertyOp2
 70
     1
102
RTVSPropertyOp3
 70
     1
102
RTVSPropertyOp4
 70
     1
102
RTVSPropertyOp5
 70
     1
102
RTVSPropertyOp6
 70
     1
102
RTVSPropertyOp7
 70
     1
102
RTVSPropertyOp8
 70
     1
102
RTVSPropertyOp9
 70
     1
102
RTVSPropertyOp10
 70
     1
102
RTVSPropertyOp11
 70
     1
102
RTVSPropertyOp12
 70
     1
102
RTVSPropertyOp13
 70
     1
102
RTVSPropertyOp14
 70
     1
102
RTVSPropertyOp15
 70
     1
102
RTVSPropertyOp16
 70
     1
102
RTVSPropertyOp17
 70
     1
102
RTVSPropertyOp18
 70
     1
102
RTVSPropertyOp19
 70
     1
102
RTVSPropertyOp20
 70
     1
102
RTVSPropertyOp21
 70
     1
102
RTVSPropertyOp22
 70
     1
102
RTVSPropertyOp23
 70
     1
102
RTVSPropertyOp24
 70
     1
102
RTVSPropertyOp25
 70
     1
102
RTVSPropertyOp26
 70
     1
102
RTVSPropertyOp27
 70
     1
102
RTVSPropertyOp28
 70
     1
102
RTVSPropertyOp29
 70
     1
102
RTVSPropertyOp30
 70
     1
102
RTVSPropertyOp31
 70
     1
102
RTVSPropertyOp32
 70
     1
102
RTVSPropertyOp33
 70
     1
102
RTVSPropertyOp34
 70
     1
102
RTVSPropertyOp35
 70
     1
102
RTVSPropertyOp36
 70
     1
102
RTVSPropertyOp37
 70
     1
102
RTVSPropertyOp38
 70
     1
102
RTVSPropertyOp39
 70
     1
102
RTVSPropertyOp40
 70
     1
102
RTVSPropertyOp41
 70
     1
102
RTVSPropertyOp42
 70
     1
102
RTVSPropertyOp43
 70
     1
102
RTVSPropertyOp44
 70
     1
102
RTVSPropertyOp45
 70
     1
102
RTVSPropertyOp46
 70
     1
102
RTVSPropertyOp47
 70
     1
102
RTVSPropertyOp48
 70
     1
102
RTVSPropertyOp49
 70
     1
102
RTVSPropertyOp50
 70
     1
102
RTVSPropertyOp51
 70
     0
102
RTVSPropertyOp52
 70
     0
102
RTVSPropertyOp53
 70
     1
102
RTVSPropertyOp54
 70
     1
102
RTVSPropertyOp55
 70
     1
102
RTVSPropertyOp56
 70
     1
102
RTVSPropertyOp57
 70
     1
102
RTVSPropertyOp58
 70
     1
102
RTVSPropertyOp59
 70
     1
102
RTVSPropertyOp60
 70
     1
102
RTVSPropertyOp61
 70
     1
102
RTVSPropertyOp62
 70
     1
  0
XRECORD
  5
F42D3
102
{ACAD_REACTORS
330
F42D2
102
}
330
F42D2
100
AcDbXrecord
280
     1
102
RTVSPost2010Prop28
280
     0
102
RTVSPost2010PropOp28
 70
     1
102
RTVSPost2010Prop29
280
     1
102
RTVSPost2010PropOp29
 70
     1
102
RTVSPost2010Prop30
280
     1
102
RTVSPost2010PropOp30
 70
     1
102
RTVSPost2010Prop31
280
     0
102
RTVSPost2010PropOp31
 70
     1
102
RTVSPost2010Prop32
280
     0
102
RTVSPost2010PropOp32
 70
     1
102
RTVSPost2010Prop33
280
     0
102
RTVSPost2010PropOp33
 70
     1
102
RTVSPost2010Prop34
280
     0
102
RTVSPost2010PropOp34
 70
     1
102
RTVSPost2010Prop35
280
     0
102
RTVSPost2010PropOp35
 70
     1
102
RTVSPost2010Prop36
280
     0
102
RTVSPost2010PropOp36
 70
     1
102
RTVSPost2010Prop37
 90
       50
102
RTVSPost2010PropOp37
 70
     1
102
RTVSPost2010Prop38
140
0.0
102
RTVSPost2010PropOp38
 70
     1
102
RTVSPost2010Prop39
140
1.0
102
RTVSPost2010PropOp39
 70
     1
102
RTVSPost2010Prop40
 90
        0
102
RTVSPost2010PropOp40
 70
     1
102
RTVSPost2010Prop41ColorIndex
 90
       18
102
RTVSPost2010Prop41ColorRGB
 90
        0
102
RTVSPost2010PropOp41
 70
     1
102
RTVSPost2010Prop42
 90
       50
102
RTVSPost2010PropOp42
 70
     1
102
RTVSPost2010Prop43
 90
        3
102
RTVSPost2010PropOp43
 70
     1
102
RTVSPost2010Prop44ColorIndex
 90
        5
102
RTVSPost2010Prop44ColorRGB
 90
      255
102
RTVSPost2010PropOp44
 70
     1
102
RTVSPost2010Prop45
280
     0
102
RTVSPost2010PropOp45
 70
     1
102
RTVSPost2010Prop46
 90
       50
102
RTVSPost2010PropOp46
 70
     1
102
RTVSPost2010Prop47
 90
       50
102
RTVSPost2010PropOp47
 70
     1
102
RTVSPost2010Prop48
 90
       50
102
RTVSPost2010PropOp48
 70
     1
102
RTVSPost2010Prop49
280
     0
102
RTVSPost2010PropOp49
 70
     1
102
RTVSPost2010Prop50
 90
       50
102
RTVSPost2010PropOp50
 70
     1
102
RTVSPost2010Prop51ColorIndex
 90
      256
102
RTVSPost2010Prop51ColorRGB
 90
-16777216
102
RTVSPost2010PropOp51
 70
     0
102
RTVSPost2010Prop52
140
1.0
102
RTVSPost2010PropOp52
 70
     0
102
RTVSPost2010Prop53
 90
        2
102
RTVSPost2010PropOp53
 70
     1
102
RTVSPost2010Prop54
  1
strokes_ogs.tif
102
RTVSPost2010PropOp54
 70
     1
102
RTVSPost2010Prop55
280
     0
102
RTVSPost2010PropOp55
 70
     1
102
RTVSPost2010Prop56
140
1.0
102
RTVSPost2010PropOp56
 70
     1
102
RTVSPost2010Prop57
140
1.0
102
RTVSPost2010PropOp57
 70
     1
102
RTVSPropertyOp0
 70
     1
102
RTVSPropertyOp1
 70
     1
102
RTVSPropertyOp2
 70
     1
102
RTVSPropertyOp3
 70
     1
102
RTVSPropertyOp4
 70
     1
102
RTVSPropertyOp5
 70
     1
102
RTVSPropertyOp6
 70
     1
102
RTVSPropertyOp7
 70
     1
102
RTVSPropertyOp8
 70
     1
102
RTVSPropertyOp9
 70
     1
102
RTVSPropertyOp10
 70
     1
102
RTVSPropertyOp11
 70
     1
102
RTVSPropertyOp12
 70
     1
102
RTVSPropertyOp13
 70
     1
102
RTVSPropertyOp14
 70
     1
102
RTVSPropertyOp15
 70
     1
102
RTVSPropertyOp16
 70
     1
102
RTVSPropertyOp17
 70
     1
102
RTVSPropertyOp18
 70
     1
102
RTVSPropertyOp19
 70
     1
102
RTVSPropertyOp20
 70
     1
102
RTVSPropertyOp21
 70
     1
102
RTVSPropertyOp22
 70
     1
102
RTVSPropertyOp23
 70
     1
102
RTVSPropertyOp24
 70
     1
102
RTVSPropertyOp25
 70
     1
102
RTVSPropertyOp26
 70
     1
102
RTVSPropertyOp27
 70
     1
102
RTVSPropertyOp28
 70
     1
102
RTVSPropertyOp29
 70
     1
102
RTVSPropertyOp30
 70
     1
102
RTVSPropertyOp31
 70
     1
102
RTVSPropertyOp32
 70
     1
102
RTVSPropertyOp33
 70
     1
102
RTVSPropertyOp34
 70
     1
102
RTVSPropertyOp35
 70
     1
102
RTVSPropertyOp36
 70
     1
102
RTVSPropertyOp37
 70
     1
102
RTVSPropertyOp38
 70
     1
102
RTVSPropertyOp39
 70
     1
102
RTVSPropertyOp40
 70
     1
102
RTVSPropertyOp41
 70
     1
102
RTVSPropertyOp42
 70
     1
102
RTVSPropertyOp43
 70
     1
102
RTVSPropertyOp44
 70
     1
102
RTVSPropertyOp45
 70
     1
102
RTVSPropertyOp46
 70
     1
102
RTVSPropertyOp47
 70
     1
102
RTVSPropertyOp48
 70
     1
102
RTVSPropertyOp49
 70
     1
102
RTVSPropertyOp50
 70
     1
102
RTVSPropertyOp51
 70
     0
102
RTVSPropertyOp52
 70
     0
102
RTVSPropertyOp53
 70
     1
102
RTVSPropertyOp54
 70
     1
102
RTVSPropertyOp55
 70
     1
102
RTVSPropertyOp56
 70
     1
102
RTVSPropertyOp57
 70
     1
102
RTVSPropertyOp58
 70
     1
102
RTVSPropertyOp59
 70
     1
102
RTVSPropertyOp60
 70
     1
102
RTVSPropertyOp61
 70
     1
102
RTVSPropertyOp62
 70
     1
  0
XRECORD
  5
F42E1
102
{ACAD_REACTORS
330
F42E0
102
}
330
F42E0
100
AcDbXrecord
280
     1
102
RTVSPost2010Prop28
280
     0
102
RTVSPost2010PropOp28
 70
     1
102
RTVSPost2010Prop29
280
     1
102
RTVSPost2010PropOp29
 70
     1
102
RTVSPost2010Prop30
280
     1
102
RTVSPost2010PropOp30
 70
     1
102
RTVSPost2010Prop31
280
     0
102
RTVSPost2010PropOp31
 70
     1
102
RTVSPost2010Prop32
280
     0
102
RTVSPost2010PropOp32
 70
     1
102
RTVSPost2010Prop33
280
     0
102
RTVSPost2010PropOp33
 70
     1
102
RTVSPost2010Prop34
280
     0
102
RTVSPost2010PropOp34
 70
     1
102
RTVSPost2010Prop35
280
     0
102
RTVSPost2010PropOp35
 70
     1
102
RTVSPost2010Prop36
280
     0
102
RTVSPost2010PropOp36
 70
     1
102
RTVSPost2010Prop37
 90
       50
102
RTVSPost2010PropOp37
 70
     1
102
RTVSPost2010Prop38
140
0.0
102
RTVSPost2010PropOp38
 70
     1
102
RTVSPost2010Prop39
140
1.0
102
RTVSPost2010PropOp39
 70
     1
102
RTVSPost2010Prop40
 90
        0
102
RTVSPost2010PropOp40
 70
     1
102
RTVSPost2010Prop41ColorIndex
 90
       18
102
RTVSPost2010Prop41ColorRGB
 90
        0
102
RTVSPost2010PropOp41
 70
     1
102
RTVSPost2010Prop42
 90
       50
102
RTVSPost2010PropOp42
 70
     1
102
RTVSPost2010Prop43
 90
        3
102
RTVSPost2010PropOp43
 70
     1
102
RTVSPost2010Prop44ColorIndex
 90
        5
102
RTVSPost2010Prop44ColorRGB
 90
      255
102
RTVSPost2010PropOp44
 70
     1
102
RTVSPost2010Prop45
280
     0
102
RTVSPost2010PropOp45
 70
     1
102
RTVSPost2010Prop46
 90
       50
102
RTVSPost2010PropOp46
 70
     1
102
RTVSPost2010Prop47
 90
       50
102
RTVSPost2010PropOp47
 70
     1
102
RTVSPost2010Prop48
 90
       50
102
RTVSPost2010PropOp48
 70
     1
102
RTVSPost2010Prop49
280
     0
102
RTVSPost2010PropOp49
 70
     1
102
RTVSPost2010Prop50
 90
       50
102
RTVSPost2010PropOp50
 70
     1
102
RTVSPost2010Prop51ColorIndex
 90
      256
102
RTVSPost2010Prop51ColorRGB
 90
-16777216
102
RTVSPost2010PropOp51
 70
     0
102
RTVSPost2010Prop52
140
1.0
102
RTVSPost2010PropOp52
 70
     0
102
RTVSPost2010Prop53
 90
        2
102
RTVSPost2010PropOp53
 70
     1
102
RTVSPost2010Prop54
  1
strokes_ogs.tif
102
RTVSPost2010PropOp54
 70
     1
102
RTVSPost2010Prop55
280
     0
102
RTVSPost2010PropOp55
 70
     1
102
RTVSPost2010Prop56
140
1.0
102
RTVSPost2010PropOp56
 70
     1
102
RTVSPost2010Prop57
140
1.0
102
RTVSPost2010PropOp57
 70
     1
102
RTVSPropertyOp0
 70
     1
102
RTVSPropertyOp1
 70
     1
102
RTVSPropertyOp2
 70
     1
102
RTVSPropertyOp3
 70
     1
102
RTVSPropertyOp4
 70
     1
102
RTVSPropertyOp5
 70
     1
102
RTVSPropertyOp6
 70
     1
102
RTVSPropertyOp7
 70
     1
102
RTVSPropertyOp8
 70
     1
102
RTVSPropertyOp9
 70
     1
102
RTVSPropertyOp10
 70
     1
102
RTVSPropertyOp11
 70
     1
102
RTVSPropertyOp12
 70
     1
102
RTVSPropertyOp13
 70
     1
102
RTVSPropertyOp14
 70
     1
102
RTVSPropertyOp15
 70
     1
102
RTVSPropertyOp16
 70
     1
102
RTVSPropertyOp17
 70
     1
102
RTVSPropertyOp18
 70
     1
102
RTVSPropertyOp19
 70
     1
102
RTVSPropertyOp20
 70
     1
102
RTVSPropertyOp21
 70
     1
102
RTVSPropertyOp22
 70
     1
102
RTVSPropertyOp23
 70
     1
102
RTVSPropertyOp24
 70
     1
102
RTVSPropertyOp25
 70
     1
102
RTVSPropertyOp26
 70
     1
102
RTVSPropertyOp27
 70
     1
102
RTVSPropertyOp28
 70
     1
102
RTVSPropertyOp29
 70
     1
102
RTVSPropertyOp30
 70
     1
102
RTVSPropertyOp31
 70
     1
102
RTVSPropertyOp32
 70
     1
102
RTVSPropertyOp33
 70
     1
102
RTVSPropertyOp34
 70
     1
102
RTVSPropertyOp35
 70
     1
102
RTVSPropertyOp36
 70
     1
102
RTVSPropertyOp37
 70
     1
102
RTVSPropertyOp38
 70
     1
102
RTVSPropertyOp39
 70
     1
102
RTVSPropertyOp40
 70
     1
102
RTVSPropertyOp41
 70
     1
102
RTVSPropertyOp42
 70
     1
102
RTVSPropertyOp43
 70
     1
102
RTVSPropertyOp44
 70
     1
102
RTVSPropertyOp45
 70
     1
102
RTVSPropertyOp46
 70
     1
102
RTVSPropertyOp47
 70
     1
102
RTVSPropertyOp48
 70
     1
102
RTVSPropertyOp49
 70
     1
102
RTVSPropertyOp50
 70
     1
102
RTVSPropertyOp51
 70
     0
102
RTVSPropertyOp52
 70
     0
102
RTVSPropertyOp53
 70
     1
102
RTVSPropertyOp54
 70
     1
102
RTVSPropertyOp55
 70
     1
102
RTVSPropertyOp56
 70
     1
102
RTVSPropertyOp57
 70
     1
102
RTVSPropertyOp58
 70
     1
102
RTVSPropertyOp59
 70
     1
102
RTVSPropertyOp60
 70
     1
102
RTVSPropertyOp61
 70
     1
102
RTVSPropertyOp62
 70
     1
  0
XRECORD
  5
F42E9
102
{ACAD_REACTORS
330
F42E8
102
}
330
F42E8
100
AcDbXrecord
280
     1
102
RTVSPost2010Prop28
280
     0
102
RTVSPost2010PropOp28
 70
     1
102
RTVSPost2010Prop29
280
     1
102
RTVSPost2010PropOp29
 70
     1
102
RTVSPost2010Prop30
280
     1
102
RTVSPost2010PropOp30
 70
     1
102
RTVSPost2010Prop31
280
     0
102
RTVSPost2010PropOp31
 70
     1
102
RTVSPost2010Prop32
280
     0
102
RTVSPost2010PropOp32
 70
     1
102
RTVSPost2010Prop33
280
     0
102
RTVSPost2010PropOp33
 70
     1
102
RTVSPost2010Prop34
280
     0
102
RTVSPost2010PropOp34
 70
     1
102
RTVSPost2010Prop35
280
     0
102
RTVSPost2010PropOp35
 70
     1
102
RTVSPost2010Prop36
280
     0
102
RTVSPost2010PropOp36
 70
     1
102
RTVSPost2010Prop37
 90
       50
102
RTVSPost2010PropOp37
 70
     1
102
RTVSPost2010Prop38
140
0.0
102
RTVSPost2010PropOp38
 70
     1
102
RTVSPost2010Prop39
140
1.0
102
RTVSPost2010PropOp39
 70
     1
102
RTVSPost2010Prop40
 90
        0
102
RTVSPost2010PropOp40
 70
     1
102
RTVSPost2010Prop41ColorIndex
 90
       18
102
RTVSPost2010Prop41ColorRGB
 90
        0
102
RTVSPost2010PropOp41
 70
     1
102
RTVSPost2010Prop42
 90
       50
102
RTVSPost2010PropOp42
 70
     1
102
RTVSPost2010Prop43
 90
        3
102
RTVSPost2010PropOp43
 70
     1
102
RTVSPost2010Prop44ColorIndex
 90
        5
102
RTVSPost2010Prop44ColorRGB
 90
      255
102
RTVSPost2010PropOp44
 70
     1
102
RTVSPost2010Prop45
280
     0
102
RTVSPost2010PropOp45
 70
     1
102
RTVSPost2010Prop46
 90
       50
102
RTVSPost2010PropOp46
 70
     1
102
RTVSPost2010Prop47
 90
       50
102
RTVSPost2010PropOp47
 70
     1
102
RTVSPost2010Prop48
 90
       50
102
RTVSPost2010PropOp48
 70
     1
102
RTVSPost2010Prop49
280
     0
102
RTVSPost2010PropOp49
 70
     1
102
RTVSPost2010Prop50
 90
       50
102
RTVSPost2010PropOp50
 70
     1
102
RTVSPost2010Prop51ColorIndex
 90
      256
102
RTVSPost2010Prop51ColorRGB
 90
-16777216
102
RTVSPost2010PropOp51
 70
     0
102
RTVSPost2010Prop52
140
1.0
102
RTVSPost2010PropOp52
 70
     0
102
RTVSPost2010Prop53
 90
        2
102
RTVSPost2010PropOp53
 70
     1
102
RTVSPost2010Prop54
  1
strokes_ogs.tif
102
RTVSPost2010PropOp54
 70
     1
102
RTVSPost2010Prop55
280
     0
102
RTVSPost2010PropOp55
 70
     1
102
RTVSPost2010Prop56
140
1.0
102
RTVSPost2010PropOp56
 70
     1
102
RTVSPost2010Prop57
140
1.0
102
RTVSPost2010PropOp57
 70
     1
102
RTVSPropertyOp0
 70
     1
102
RTVSPropertyOp1
 70
     1
102
RTVSPropertyOp2
 70
     1
102
RTVSPropertyOp3
 70
     1
102
RTVSPropertyOp4
 70
     1
102
RTVSPropertyOp5
 70
     1
102
RTVSPropertyOp6
 70
     1
102
RTVSPropertyOp7
 70
     1
102
RTVSPropertyOp8
 70
     1
102
RTVSPropertyOp9
 70
     1
102
RTVSPropertyOp10
 70
     1
102
RTVSPropertyOp11
 70
     1
102
RTVSPropertyOp12
 70
     1
102
RTVSPropertyOp13
 70
     1
102
RTVSPropertyOp14
 70
     1
102
RTVSPropertyOp15
 70
     1
102
RTVSPropertyOp16
 70
     1
102
RTVSPropertyOp17
 70
     1
102
RTVSPropertyOp18
 70
     1
102
RTVSPropertyOp19
 70
     1
102
RTVSPropertyOp20
 70
     1
102
RTVSPropertyOp21
 70
     1
102
RTVSPropertyOp22
 70
     1
102
RTVSPropertyOp23
 70
     1
102
RTVSPropertyOp24
 70
     1
102
RTVSPropertyOp25
 70
     1
102
RTVSPropertyOp26
 70
     1
102
RTVSPropertyOp27
 70
     1
102
RTVSPropertyOp28
 70
     1
102
RTVSPropertyOp29
 70
     1
102
RTVSPropertyOp30
 70
     1
102
RTVSPropertyOp31
 70
     1
102
RTVSPropertyOp32
 70
     1
102
RTVSPropertyOp33
 70
     1
102
RTVSPropertyOp34
 70
     1
102
RTVSPropertyOp35
 70
     1
102
RTVSPropertyOp36
 70
     1
102
RTVSPropertyOp37
 70
     1
102
RTVSPropertyOp38
 70
     1
102
RTVSPropertyOp39
 70
     1
102
RTVSPropertyOp40
 70
     1
102
RTVSPropertyOp41
 70
     1
102
RTVSPropertyOp42
 70
     1
102
RTVSPropertyOp43
 70
     1
102
RTVSPropertyOp44
 70
     1
102
RTVSPropertyOp45
 70
     1
102
RTVSPropertyOp46
 70
     1
102
RTVSPropertyOp47
 70
     1
102
RTVSPropertyOp48
 70
     1
102
RTVSPropertyOp49
 70
     1
102
RTVSPropertyOp50
 70
     1
102
RTVSPropertyOp51
 70
     0
102
RTVSPropertyOp52
 70
     0
102
RTVSPropertyOp53
 70
     1
102
RTVSPropertyOp54
 70
     1
102
RTVSPropertyOp55
 70
     1
102
RTVSPropertyOp56
 70
     1
102
RTVSPropertyOp57
 70
     1
102
RTVSPropertyOp58
 70
     1
102
RTVSPropertyOp59
 70
     1
102
RTVSPropertyOp60
 70
     1
102
RTVSPropertyOp61
 70
     1
102
RTVSPropertyOp62
 70
     1
  0
XRECORD
  5
F42DB
102
{ACAD_REACTORS
330
F42DA
102
}
330
F42DA
100
AcDbXrecord
280
     1
102
RTVSPost2010Prop28
280
     0
102
RTVSPost2010PropOp28
 70
     1
102
RTVSPost2010Prop29
280
     1
102
RTVSPost2010PropOp29
 70
     1
102
RTVSPost2010Prop30
280
     1
102
RTVSPost2010PropOp30
 70
     1
102
RTVSPost2010Prop31
280
     0
102
RTVSPost2010PropOp31
 70
     1
102
RTVSPost2010Prop32
280
     0
102
RTVSPost2010PropOp32
 70
     1
102
RTVSPost2010Prop33
280
     0
102
RTVSPost2010PropOp33
 70
     1
102
RTVSPost2010Prop34
280
     0
102
RTVSPost2010PropOp34
 70
     1
102
RTVSPost2010Prop35
280
     0
102
RTVSPost2010PropOp35
 70
     1
102
RTVSPost2010Prop36
280
     0
102
RTVSPost2010PropOp36
 70
     1
102
RTVSPost2010Prop37
 90
       50
102
RTVSPost2010PropOp37
 70
     1
102
RTVSPost2010Prop38
140
0.0
102
RTVSPost2010PropOp38
 70
     1
102
RTVSPost2010Prop39
140
1.0
102
RTVSPost2010PropOp39
 70
     1
102
RTVSPost2010Prop40
 90
        0
102
RTVSPost2010PropOp40
 70
     1
102
RTVSPost2010Prop41ColorIndex
 90
       18
102
RTVSPost2010Prop41ColorRGB
 90
        0
102
RTVSPost2010PropOp41
 70
     1
102
RTVSPost2010Prop42
 90
       50
102
RTVSPost2010PropOp42
 70
     1
102
RTVSPost2010Prop43
 90
        3
102
RTVSPost2010PropOp43
 70
     1
102
RTVSPost2010Prop44ColorIndex
 90
        5
102
RTVSPost2010Prop44ColorRGB
 90
      255
102
RTVSPost2010PropOp44
 70
     1
102
RTVSPost2010Prop45
280
     0
102
RTVSPost2010PropOp45
 70
     1
102
RTVSPost2010Prop46
 90
       50
102
RTVSPost2010PropOp46
 70
     1
102
RTVSPost2010Prop47
 90
       50
102
RTVSPost2010PropOp47
 70
     1
102
RTVSPost2010Prop48
 90
       50
102
RTVSPost2010PropOp48
 70
     1
102
RTVSPost2010Prop49
280
     0
102
RTVSPost2010PropOp49
 70
     1
102
RTVSPost2010Prop50
 90
       50
102
RTVSPost2010PropOp50
 70
     1
102
RTVSPost2010Prop51ColorIndex
 90
      256
102
RTVSPost2010Prop51ColorRGB
 90
-16777216
102
RTVSPost2010PropOp51
 70
     0
102
RTVSPost2010Prop52
140
1.0
102
RTVSPost2010PropOp52
 70
     0
102
RTVSPost2010Prop53
 90
        2
102
RTVSPost2010PropOp53
 70
     1
102
RTVSPost2010Prop54
  1
strokes_ogs.tif
102
RTVSPost2010PropOp54
 70
     1
102
RTVSPost2010Prop55
280
     0
102
RTVSPost2010PropOp55
 70
     1
102
RTVSPost2010Prop56
140
1.0
102
RTVSPost2010PropOp56
 70
     1
102
RTVSPost2010Prop57
140
1.0
102
RTVSPost2010PropOp57
 70
     1
102
RTVSPropertyOp0
 70
     1
102
RTVSPropertyOp1
 70
     1
102
RTVSPropertyOp2
 70
     1
102
RTVSPropertyOp3
 70
     1
102
RTVSPropertyOp4
 70
     1
102
RTVSPropertyOp5
 70
     1
102
RTVSPropertyOp6
 70
     1
102
RTVSPropertyOp7
 70
     1
102
RTVSPropertyOp8
 70
     1
102
RTVSPropertyOp9
 70
     1
102
RTVSPropertyOp10
 70
     1
102
RTVSPropertyOp11
 70
     1
102
RTVSPropertyOp12
 70
     1
102
RTVSPropertyOp13
 70
     1
102
RTVSPropertyOp14
 70
     1
102
RTVSPropertyOp15
 70
     1
102
RTVSPropertyOp16
 70
     1
102
RTVSPropertyOp17
 70
     1
102
RTVSPropertyOp18
 70
     1
102
RTVSPropertyOp19
 70
     1
102
RTVSPropertyOp20
 70
     1
102
RTVSPropertyOp21
 70
     1
102
RTVSPropertyOp22
 70
     1
102
RTVSPropertyOp23
 70
     1
102
RTVSPropertyOp24
 70
     1
102
RTVSPropertyOp25
 70
     1
102
RTVSPropertyOp26
 70
     1
102
RTVSPropertyOp27
 70
     1
102
RTVSPropertyOp28
 70
     1
102
RTVSPropertyOp29
 70
     1
102
RTVSPropertyOp30
 70
     1
102
RTVSPropertyOp31
 70
     1
102
RTVSPropertyOp32
 70
     1
102
RTVSPropertyOp33
 70
     1
102
RTVSPropertyOp34
 70
     1
102
RTVSPropertyOp35
 70
     1
102
RTVSPropertyOp36
 70
     1
102
RTVSPropertyOp37
 70
     1
102
RTVSPropertyOp38
 70
     1
102
RTVSPropertyOp39
 70
     1
102
RTVSPropertyOp40
 70
     1
102
RTVSPropertyOp41
 70
     1
102
RTVSPropertyOp42
 70
     1
102
RTVSPropertyOp43
 70
     1
102
RTVSPropertyOp44
 70
     1
102
RTVSPropertyOp45
 70
     1
102
RTVSPropertyOp46
 70
     1
102
RTVSPropertyOp47
 70
     1
102
RTVSPropertyOp48
 70
     1
102
RTVSPropertyOp49
 70
     1
102
RTVSPropertyOp50
 70
     1
102
RTVSPropertyOp51
 70
     0
102
RTVSPropertyOp52
 70
     0
102
RTVSPropertyOp53
 70
     1
102
RTVSPropertyOp54
 70
     1
102
RTVSPropertyOp55
 70
     1
102
RTVSPropertyOp56
 70
     1
102
RTVSPropertyOp57
 70
     1
102
RTVSPropertyOp58
 70
     1
102
RTVSPropertyOp59
 70
     1
102
RTVSPropertyOp60
 70
     1
102
RTVSPropertyOp61
 70
     1
102
RTVSPropertyOp62
 70
     1
  0
XRECORD
  5
F42DF
102
{ACAD_REACTORS
330
F42DE
102
}
330
F42DE
100
AcDbXrecord
280
     1
102
RTVSPost2010Prop28
280
     0
102
RTVSPost2010PropOp28
 70
     1
102
RTVSPost2010Prop29
280
     1
102
RTVSPost2010PropOp29
 70
     1
102
RTVSPost2010Prop30
280
     1
102
RTVSPost2010PropOp30
 70
     1
102
RTVSPost2010Prop31
280
     0
102
RTVSPost2010PropOp31
 70
     1
102
RTVSPost2010Prop32
280
     0
102
RTVSPost2010PropOp32
 70
     1
102
RTVSPost2010Prop33
280
     0
102
RTVSPost2010PropOp33
 70
     1
102
RTVSPost2010Prop34
280
     0
102
RTVSPost2010PropOp34
 70
     1
102
RTVSPost2010Prop35
280
     0
102
RTVSPost2010PropOp35
 70
     1
102
RTVSPost2010Prop36
280
     0
102
RTVSPost2010PropOp36
 70
     1
102
RTVSPost2010Prop37
 90
       50
102
RTVSPost2010PropOp37
 70
     1
102
RTVSPost2010Prop38
140
0.0
102
RTVSPost2010PropOp38
 70
     1
102
RTVSPost2010Prop39
140
1.0
102
RTVSPost2010PropOp39
 70
     1
102
RTVSPost2010Prop40
 90
        0
102
RTVSPost2010PropOp40
 70
     1
102
RTVSPost2010Prop41ColorIndex
 90
       18
102
RTVSPost2010Prop41ColorRGB
 90
        0
102
RTVSPost2010PropOp41
 70
     1
102
RTVSPost2010Prop42
 90
       50
102
RTVSPost2010PropOp42
 70
     1
102
RTVSPost2010Prop43
 90
        3
102
RTVSPost2010PropOp43
 70
     1
102
RTVSPost2010Prop44ColorIndex
 90
        5
102
RTVSPost2010Prop44ColorRGB
 90
      255
102
RTVSPost2010PropOp44
 70
     1
102
RTVSPost2010Prop45
280
     0
102
RTVSPost2010PropOp45
 70
     1
102
RTVSPost2010Prop46
 90
       50
102
RTVSPost2010PropOp46
 70
     1
102
RTVSPost2010Prop47
 90
       50
102
RTVSPost2010PropOp47
 70
     1
102
RTVSPost2010Prop48
 90
       50
102
RTVSPost2010PropOp48
 70
     1
102
RTVSPost2010Prop49
280
     0
102
RTVSPost2010PropOp49
 70
     1
102
RTVSPost2010Prop50
 90
       50
102
RTVSPost2010PropOp50
 70
     1
102
RTVSPost2010Prop51ColorIndex
 90
      256
102
RTVSPost2010Prop51ColorRGB
 90
-16777216
102
RTVSPost2010PropOp51
 70
     0
102
RTVSPost2010Prop52
140
1.0
102
RTVSPost2010PropOp52
 70
     0
102
RTVSPost2010Prop53
 90
        2
102
RTVSPost2010PropOp53
 70
     1
102
RTVSPost2010Prop54
  1
strokes_ogs.tif
102
RTVSPost2010PropOp54
 70
     1
102
RTVSPost2010Prop55
280
     0
102
RTVSPost2010PropOp55
 70
     1
102
RTVSPost2010Prop56
140
1.0
102
RTVSPost2010PropOp56
 70
     1
102
RTVSPost2010Prop57
140
1.0
102
RTVSPost2010PropOp57
 70
     1
102
RTVSPropertyOp0
 70
     1
102
RTVSPropertyOp1
 70
     1
102
RTVSPropertyOp2
 70
     1
102
RTVSPropertyOp3
 70
     1
102
RTVSPropertyOp4
 70
     1
102
RTVSPropertyOp5
 70
     1
102
RTVSPropertyOp6
 70
     1
102
RTVSPropertyOp7
 70
     1
102
RTVSPropertyOp8
 70
     1
102
RTVSPropertyOp9
 70
     1
102
RTVSPropertyOp10
 70
     1
102
RTVSPropertyOp11
 70
     1
102
RTVSPropertyOp12
 70
     1
102
RTVSPropertyOp13
 70
     1
102
RTVSPropertyOp14
 70
     1
102
RTVSPropertyOp15
 70
     1
102
RTVSPropertyOp16
 70
     1
102
RTVSPropertyOp17
 70
     1
102
RTVSPropertyOp18
 70
     1
102
RTVSPropertyOp19
 70
     1
102
RTVSPropertyOp20
 70
     1
102
RTVSPropertyOp21
 70
     1
102
RTVSPropertyOp22
 70
     1
102
RTVSPropertyOp23
 70
     1
102
RTVSPropertyOp24
 70
     1
102
RTVSPropertyOp25
 70
     1
102
RTVSPropertyOp26
 70
     1
102
RTVSPropertyOp27
 70
     1
102
RTVSPropertyOp28
 70
     1
102
RTVSPropertyOp29
 70
     1
102
RTVSPropertyOp30
 70
     1
102
RTVSPropertyOp31
 70
     1
102
RTVSPropertyOp32
 70
     1
102
RTVSPropertyOp33
 70
     1
102
RTVSPropertyOp34
 70
     1
102
RTVSPropertyOp35
 70
     1
102
RTVSPropertyOp36
 70
     1
102
RTVSPropertyOp37
 70
     1
102
RTVSPropertyOp38
 70
     1
102
RTVSPropertyOp39
 70
     1
102
RTVSPropertyOp40
 70
     1
102
RTVSPropertyOp41
 70
     1
102
RTVSPropertyOp42
 70
     1
102
RTVSPropertyOp43
 70
     1
102
RTVSPropertyOp44
 70
     1
102
RTVSPropertyOp45
 70
     1
102
RTVSPropertyOp46
 70
     1
102
RTVSPropertyOp47
 70
     1
102
RTVSPropertyOp48
 70
     1
102
RTVSPropertyOp49
 70
     1
102
RTVSPropertyOp50
 70
     1
102
RTVSPropertyOp51
 70
     0
102
RTVSPropertyOp52
 70
     0
102
RTVSPropertyOp53
 70
     1
102
RTVSPropertyOp54
 70
     1
102
RTVSPropertyOp55
 70
     1
102
RTVSPropertyOp56
 70
     1
102
RTVSPropertyOp57
 70
     1
102
RTVSPropertyOp58
 70
     1
102
RTVSPropertyOp59
 70
     1
102
RTVSPropertyOp60
 70
     1
102
RTVSPropertyOp61
 70
     1
102
RTVSPropertyOp62
 70
     1
  0
XRECORD
  5
F42F9
102
{ACAD_REACTORS
330
F42F8
102
}
330
F42F8
100
AcDbXrecord
280
     1
102
RTVSPost2010Prop28
280
     0
102
RTVSPost2010PropOp28
 70
     1
102
RTVSPost2010Prop29
280
     1
102
RTVSPost2010PropOp29
 70
     1
102
RTVSPost2010Prop30
280
     1
102
RTVSPost2010PropOp30
 70
     1
102
RTVSPost2010Prop31
280
     0
102
RTVSPost2010PropOp31
 70
     1
102
RTVSPost2010Prop32
280
     0
102
RTVSPost2010PropOp32
 70
     1
102
RTVSPost2010Prop33
280
     0
102
RTVSPost2010PropOp33
 70
     1
102
RTVSPost2010Prop34
280
     0
102
RTVSPost2010PropOp34
 70
     1
102
RTVSPost2010Prop35
280
     0
102
RTVSPost2010PropOp35
 70
     1
102
RTVSPost2010Prop36
280
     0
102
RTVSPost2010PropOp36
 70
     1
102
RTVSPost2010Prop37
 90
       50
102
RTVSPost2010PropOp37
 70
     0
102
RTVSPost2010Prop38
140
0.0
102
RTVSPost2010PropOp38
 70
     0
102
RTVSPost2010Prop39
140
1.0
102
RTVSPost2010PropOp39
 70
     0
102
RTVSPost2010Prop40
 90
        0
102
RTVSPost2010PropOp40
 70
     0
102
RTVSPost2010Prop41ColorIndex
 90
       18
102
RTVSPost2010Prop41ColorRGB
 90
        0
102
RTVSPost2010PropOp41
 70
     0
102
RTVSPost2010Prop42
 90
       50
102
RTVSPost2010PropOp42
 70
     0
102
RTVSPost2010Prop43
 90
        3
102
RTVSPost2010PropOp43
 70
     0
102
RTVSPost2010Prop44ColorIndex
 90
        5
102
RTVSPost2010Prop44ColorRGB
 90
      255
102
RTVSPost2010PropOp44
 70
     0
102
RTVSPost2010Prop45
280
     0
102
RTVSPost2010PropOp45
 70
     1
102
RTVSPost2010Prop46
 90
       50
102
RTVSPost2010PropOp46
 70
     0
102
RTVSPost2010Prop47
 90
       50
102
RTVSPost2010PropOp47
 70
     0
102
RTVSPost2010Prop48
 90
       50
102
RTVSPost2010PropOp48
 70
     0
102
RTVSPost2010Prop49
280
     0
102
RTVSPost2010PropOp49
 70
     1
102
RTVSPost2010Prop50
 90
       50
102
RTVSPost2010PropOp50
 70
     0
102
RTVSPost2010Prop51ColorIndex
 90
      256
102
RTVSPost2010Prop51ColorRGB
 90
-16777216
102
RTVSPost2010PropOp51
 70
     0
102
RTVSPost2010Prop52
140
1.0
102
RTVSPost2010PropOp52
 70
     0
102
RTVSPost2010Prop53
 90
        2
102
RTVSPost2010PropOp53
 70
     0
102
RTVSPost2010Prop54
  1
strokes_ogs.tif
102
RTVSPost2010PropOp54
 70
     0
102
RTVSPost2010Prop55
280
     0
102
RTVSPost2010PropOp55
 70
     1
102
RTVSPost2010Prop56
140
1.0
102
RTVSPost2010PropOp56
 70
     0
102
RTVSPost2010Prop57
140
1.0
102
RTVSPost2010PropOp57
 70
     0
102
RTVSPropertyOp0
 70
     0
102
RTVSPropertyOp1
 70
     0
102
RTVSPropertyOp2
 70
     0
102
RTVSPropertyOp3
 70
     0
102
RTVSPropertyOp4
 70
     0
102
RTVSPropertyOp5
 70
     0
102
RTVSPropertyOp6
 70
     0
102
RTVSPropertyOp7
 70
     0
102
RTVSPropertyOp8
 70
     0
102
RTVSPropertyOp9
 70
     0
102
RTVSPropertyOp10
 70
     0
102
RTVSPropertyOp11
 70
     0
102
RTVSPropertyOp12
 70
     0
102
RTVSPropertyOp13
 70
     0
102
RTVSPropertyOp14
 70
     2
102
RTVSPropertyOp15
 70
     0
102
RTVSPropertyOp16
 70
     0
102
RTVSPropertyOp17
 70
     0
102
RTVSPropertyOp18
 70
     0
102
RTVSPropertyOp19
 70
     0
102
RTVSPropertyOp20
 70
     0
102
RTVSPropertyOp21
 70
     0
102
RTVSPropertyOp22
 70
     0
102
RTVSPropertyOp23
 70
     0
102
RTVSPropertyOp24
 70
     0
102
RTVSPropertyOp25
 70
     0
102
RTVSPropertyOp26
 70
     0
102
RTVSPropertyOp27
 70
     0
102
RTVSPropertyOp28
 70
     1
102
RTVSPropertyOp29
 70
     1
102
RTVSPropertyOp30
 70
     1
102
RTVSPropertyOp31
 70
     1
102
RTVSPropertyOp32
 70
     1
102
RTVSPropertyOp33
 70
     1
102
RTVSPropertyOp34
 70
     1
102
RTVSPropertyOp35
 70
     1
102
RTVSPropertyOp36
 70
     1
102
RTVSPropertyOp37
 70
     0
102
RTVSPropertyOp38
 70
     0
102
RTVSPropertyOp39
 70
     0
102
RTVSPropertyOp40
 70
     0
102
RTVSPropertyOp41
 70
     0
102
RTVSPropertyOp42
 70
     0
102
RTVSPropertyOp43
 70
     0
102
RTVSPropertyOp44
 70
     0
102
RTVSPropertyOp45
 70
     1
102
RTVSPropertyOp46
 70
     0
102
RTVSPropertyOp47
 70
     0
102
RTVSPropertyOp48
 70
     0
102
RTVSPropertyOp49
 70
     1
102
RTVSPropertyOp50
 70
     0
102
RTVSPropertyOp51
 70
     0
102
RTVSPropertyOp52
 70
     0
102
RTVSPropertyOp53
 70
     0
102
RTVSPropertyOp54
 70
     0
102
RTVSPropertyOp55
 70
     1
102
RTVSPropertyOp56
 70
     0
102
RTVSPropertyOp57
 70
     0
102
RTVSPropertyOp58
 70
     0
102
RTVSPropertyOp59
 70
     0
102
RTVSPropertyOp60
 70
     0
102
RTVSPropertyOp61
 70
     0
102
RTVSPropertyOp62
 70
     0
  0
XRECORD
  5
F42E7
102
{ACAD_REACTORS
330
F42E6
102
}
330
F42E6
100
AcDbXrecord
280
     1
102
RTVSPost2010Prop28
280
     0
102
RTVSPost2010PropOp28
 70
     1
102
RTVSPost2010Prop29
280
     1
102
RTVSPost2010PropOp29
 70
     1
102
RTVSPost2010Prop30
280
     1
102
RTVSPost2010PropOp30
 70
     1
102
RTVSPost2010Prop31
280
     0
102
RTVSPost2010PropOp31
 70
     1
102
RTVSPost2010Prop32
280
     0
102
RTVSPost2010PropOp32
 70
     1
102
RTVSPost2010Prop33
280
     0
102
RTVSPost2010PropOp33
 70
     1
102
RTVSPost2010Prop34
280
     0
102
RTVSPost2010PropOp34
 70
     1
102
RTVSPost2010Prop35
280
     0
102
RTVSPost2010PropOp35
 70
     1
102
RTVSPost2010Prop36
280
     0
102
RTVSPost2010PropOp36
 70
     1
102
RTVSPost2010Prop37
 90
       50
102
RTVSPost2010PropOp37
 70
     1
102
RTVSPost2010Prop38
140
0.0
102
RTVSPost2010PropOp38
 70
     1
102
RTVSPost2010Prop39
140
1.0
102
RTVSPost2010PropOp39
 70
     1
102
RTVSPost2010Prop40
 90
        0
102
RTVSPost2010PropOp40
 70
     1
102
RTVSPost2010Prop41ColorIndex
 90
       18
102
RTVSPost2010Prop41ColorRGB
 90
        0
102
RTVSPost2010PropOp41
 70
     1
102
RTVSPost2010Prop42
 90
       50
102
RTVSPost2010PropOp42
 70
     1
102
RTVSPost2010Prop43
 90
        3
102
RTVSPost2010PropOp43
 70
     1
102
RTVSPost2010Prop44ColorIndex
 90
        5
102
RTVSPost2010Prop44ColorRGB
 90
      255
102
RTVSPost2010PropOp44
 70
     1
102
RTVSPost2010Prop45
280
     0
102
RTVSPost2010PropOp45
 70
     1
102
RTVSPost2010Prop46
 90
       50
102
RTVSPost2010PropOp46
 70
     1
102
RTVSPost2010Prop47
 90
       50
102
RTVSPost2010PropOp47
 70
     1
102
RTVSPost2010Prop48
 90
       50
102
RTVSPost2010PropOp48
 70
     1
102
RTVSPost2010Prop49
280
     0
102
RTVSPost2010PropOp49
 70
     1
102
RTVSPost2010Prop50
 90
       50
102
RTVSPost2010PropOp50
 70
     1
102
RTVSPost2010Prop51ColorIndex
 90
      256
102
RTVSPost2010Prop51ColorRGB
 90
-16777216
102
RTVSPost2010PropOp51
 70
     0
102
RTVSPost2010Prop52
140
1.0
102
RTVSPost2010PropOp52
 70
     0
102
RTVSPost2010Prop53
 90
        2
102
RTVSPost2010PropOp53
 70
     1
102
RTVSPost2010Prop54
  1
strokes_ogs.tif
102
RTVSPost2010PropOp54
 70
     1
102
RTVSPost2010Prop55
280
     0
102
RTVSPost2010PropOp55
 70
     1
102
RTVSPost2010Prop56
140
1.0
102
RTVSPost2010PropOp56
 70
     1
102
RTVSPost2010Prop57
140
1.0
102
RTVSPost2010PropOp57
 70
     1
102
RTVSPropertyOp0
 70
     1
102
RTVSPropertyOp1
 70
     1
102
RTVSPropertyOp2
 70
     1
102
RTVSPropertyOp3
 70
     1
102
RTVSPropertyOp4
 70
     1
102
RTVSPropertyOp5
 70
     1
102
RTVSPropertyOp6
 70
     1
102
RTVSPropertyOp7
 70
     1
102
RTVSPropertyOp8
 70
     1
102
RTVSPropertyOp9
 70
     1
102
RTVSPropertyOp10
 70
     1
102
RTVSPropertyOp11
 70
     1
102
RTVSPropertyOp12
 70
     1
102
RTVSPropertyOp13
 70
     1
102
RTVSPropertyOp14
 70
     1
102
RTVSPropertyOp15
 70
     1
102
RTVSPropertyOp16
 70
     1
102
RTVSPropertyOp17
 70
     1
102
RTVSPropertyOp18
 70
     1
102
RTVSPropertyOp19
 70
     1
102
RTVSPropertyOp20
 70
     1
102
RTVSPropertyOp21
 70
     1
102
RTVSPropertyOp22
 70
     1
102
RTVSPropertyOp23
 70
     1
102
RTVSPropertyOp24
 70
     1
102
RTVSPropertyOp25
 70
     1
102
RTVSPropertyOp26
 70
     1
102
RTVSPropertyOp27
 70
     1
102
RTVSPropertyOp28
 70
     1
102
RTVSPropertyOp29
 70
     1
102
RTVSPropertyOp30
 70
     1
102
RTVSPropertyOp31
 70
     1
102
RTVSPropertyOp32
 70
     1
102
RTVSPropertyOp33
 70
     1
102
RTVSPropertyOp34
 70
     1
102
RTVSPropertyOp35
 70
     1
102
RTVSPropertyOp36
 70
     1
102
RTVSPropertyOp37
 70
     1
102
RTVSPropertyOp38
 70
     1
102
RTVSPropertyOp39
 70
     1
102
RTVSPropertyOp40
 70
     1
102
RTVSPropertyOp41
 70
     1
102
RTVSPropertyOp42
 70
     1
102
RTVSPropertyOp43
 70
     1
102
RTVSPropertyOp44
 70
     1
102
RTVSPropertyOp45
 70
     1
102
RTVSPropertyOp46
 70
     1
102
RTVSPropertyOp47
 70
     1
102
RTVSPropertyOp48
 70
     1
102
RTVSPropertyOp49
 70
     1
102
RTVSPropertyOp50
 70
     1
102
RTVSPropertyOp51
 70
     0
102
RTVSPropertyOp52
 70
     0
102
RTVSPropertyOp53
 70
     1
102
RTVSPropertyOp54
 70
     1
102
RTVSPropertyOp55
 70
     1
102
RTVSPropertyOp56
 70
     1
102
RTVSPropertyOp57
 70
     1
102
RTVSPropertyOp58
 70
     1
102
RTVSPropertyOp59
 70
     1
102
RTVSPropertyOp60
 70
     1
102
RTVSPropertyOp61
 70
     1
102
RTVSPropertyOp62
 70
     1
  0
XRECORD
  5
F42CB
102
{ACAD_REACTORS
330
F42CA
102
}
330
F42CA
100
AcDbXrecord
280
     1
102
RTVSPost2010Prop28
280
     0
102
RTVSPost2010PropOp28
 70
     1
102
RTVSPost2010Prop29
280
     1
102
RTVSPost2010PropOp29
 70
     1
102
RTVSPost2010Prop30
280
     1
102
RTVSPost2010PropOp30
 70
     1
102
RTVSPost2010Prop31
280
     0
102
RTVSPost2010PropOp31
 70
     1
102
RTVSPost2010Prop32
280
     0
102
RTVSPost2010PropOp32
 70
     1
102
RTVSPost2010Prop33
280
     0
102
RTVSPost2010PropOp33
 70
     1
102
RTVSPost2010Prop34
280
     0
102
RTVSPost2010PropOp34
 70
     1
102
RTVSPost2010Prop35
280
     0
102
RTVSPost2010PropOp35
 70
     1
102
RTVSPost2010Prop36
280
     0
102
RTVSPost2010PropOp36
 70
     1
102
RTVSPost2010Prop37
 90
       50
102
RTVSPost2010PropOp37
 70
     1
102
RTVSPost2010Prop38
140
0.0
102
RTVSPost2010PropOp38
 70
     1
102
RTVSPost2010Prop39
140
1.0
102
RTVSPost2010PropOp39
 70
     1
102
RTVSPost2010Prop40
 90
        0
102
RTVSPost2010PropOp40
 70
     1
102
RTVSPost2010Prop41ColorIndex
 90
       18
102
RTVSPost2010Prop41ColorRGB
 90
        0
102
RTVSPost2010PropOp41
 70
     1
102
RTVSPost2010Prop42
 90
       50
102
RTVSPost2010PropOp42
 70
     1
102
RTVSPost2010Prop43
 90
        3
102
RTVSPost2010PropOp43
 70
     1
102
RTVSPost2010Prop44ColorIndex
 90
        5
102
RTVSPost2010Prop44ColorRGB
 90
      255
102
RTVSPost2010PropOp44
 70
     1
102
RTVSPost2010Prop45
280
     0
102
RTVSPost2010PropOp45
 70
     1
102
RTVSPost2010Prop46
 90
       50
102
RTVSPost2010PropOp46
 70
     1
102
RTVSPost2010Prop47
 90
       50
102
RTVSPost2010PropOp47
 70
     1
102
RTVSPost2010Prop48
 90
       50
102
RTVSPost2010PropOp48
 70
     1
102
RTVSPost2010Prop49
280
     0
102
RTVSPost2010PropOp49
 70
     1
102
RTVSPost2010Prop50
 90
       50
102
RTVSPost2010PropOp50
 70
     1
102
RTVSPost2010Prop51ColorIndex
 90
      256
102
RTVSPost2010Prop51ColorRGB
 90
-16777216
102
RTVSPost2010PropOp51
 70
     0
102
RTVSPost2010Prop52
140
1.0
102
RTVSPost2010PropOp52
 70
     0
102
RTVSPost2010Prop53
 90
        2
102
RTVSPost2010PropOp53
 70
     1
102
RTVSPost2010Prop54
  1
strokes_ogs.tif
102
RTVSPost2010PropOp54
 70
     1
102
RTVSPost2010Prop55
280
     0
102
RTVSPost2010PropOp55
 70
     1
102
RTVSPost2010Prop56
140
1.0
102
RTVSPost2010PropOp56
 70
     1
102
RTVSPost2010Prop57
140
1.0
102
RTVSPost2010PropOp57
 70
     1
102
RTVSPropertyOp0
 70
     1
102
RTVSPropertyOp1
 70
     1
102
RTVSPropertyOp2
 70
     1
102
RTVSPropertyOp3
 70
     1
102
RTVSPropertyOp4
 70
     1
102
RTVSPropertyOp5
 70
     1
102
RTVSPropertyOp6
 70
     1
102
RTVSPropertyOp7
 70
     1
102
RTVSPropertyOp8
 70
     1
102
RTVSPropertyOp9
 70
     1
102
RTVSPropertyOp10
 70
     1
102
RTVSPropertyOp11
 70
     1
102
RTVSPropertyOp12
 70
     1
102
RTVSPropertyOp13
 70
     1
102
RTVSPropertyOp14
 70
     1
102
RTVSPropertyOp15
 70
     1
102
RTVSPropertyOp16
 70
     1
102
RTVSPropertyOp17
 70
     1
102
RTVSPropertyOp18
 70
     1
102
RTVSPropertyOp19
 70
     1
102
RTVSPropertyOp20
 70
     1
102
RTVSPropertyOp21
 70
     1
102
RTVSPropertyOp22
 70
     1
102
RTVSPropertyOp23
 70
     1
102
RTVSPropertyOp24
 70
     1
102
RTVSPropertyOp25
 70
     1
102
RTVSPropertyOp26
 70
     1
102
RTVSPropertyOp27
 70
     1
102
RTVSPropertyOp28
 70
     1
102
RTVSPropertyOp29
 70
     1
102
RTVSPropertyOp30
 70
     1
102
RTVSPropertyOp31
 70
     1
102
RTVSPropertyOp32
 70
     1
102
RTVSPropertyOp33
 70
     1
102
RTVSPropertyOp34
 70
     1
102
RTVSPropertyOp35
 70
     1
102
RTVSPropertyOp36
 70
     1
102
RTVSPropertyOp37
 70
     1
102
RTVSPropertyOp38
 70
     1
102
RTVSPropertyOp39
 70
     1
102
RTVSPropertyOp40
 70
     1
102
RTVSPropertyOp41
 70
     1
102
RTVSPropertyOp42
 70
     1
102
RTVSPropertyOp43
 70
     1
102
RTVSPropertyOp44
 70
     1
102
RTVSPropertyOp45
 70
     1
102
RTVSPropertyOp46
 70
     1
102
RTVSPropertyOp47
 70
     1
102
RTVSPropertyOp48
 70
     1
102
RTVSPropertyOp49
 70
     1
102
RTVSPropertyOp50
 70
     1
102
RTVSPropertyOp51
 70
     0
102
RTVSPropertyOp52
 70
     0
102
RTVSPropertyOp53
 70
     1
102
RTVSPropertyOp54
 70
     1
102
RTVSPropertyOp55
 70
     1
102
RTVSPropertyOp56
 70
     1
102
RTVSPropertyOp57
 70
     1
102
RTVSPropertyOp58
 70
     1
102
RTVSPropertyOp59
 70
     1
102
RTVSPropertyOp60
 70
     1
102
RTVSPropertyOp61
 70
     1
102
RTVSPropertyOp62
 70
     1
  0
XRECORD
  5
F42CD
102
{ACAD_REACTORS
330
F42CC
102
}
330
F42CC
100
AcDbXrecord
280
     1
102
RTVSPost2010Prop28
280
     0
102
RTVSPost2010PropOp28
 70
     1
102
RTVSPost2010Prop29
280
     1
102
RTVSPost2010PropOp29
 70
     1
102
RTVSPost2010Prop30
280
     1
102
RTVSPost2010PropOp30
 70
     1
102
RTVSPost2010Prop31
280
     0
102
RTVSPost2010PropOp31
 70
     1
102
RTVSPost2010Prop32
280
     0
102
RTVSPost2010PropOp32
 70
     1
102
RTVSPost2010Prop33
280
     0
102
RTVSPost2010PropOp33
 70
     1
102
RTVSPost2010Prop34
280
     0
102
RTVSPost2010PropOp34
 70
     1
102
RTVSPost2010Prop35
280
     0
102
RTVSPost2010PropOp35
 70
     1
102
RTVSPost2010Prop36
280
     0
102
RTVSPost2010PropOp36
 70
     1
102
RTVSPost2010Prop37
 90
       50
102
RTVSPost2010PropOp37
 70
     1
102
RTVSPost2010Prop38
140
0.0
102
RTVSPost2010PropOp38
 70
     1
102
RTVSPost2010Prop39
140
1.0
102
RTVSPost2010PropOp39
 70
     1
102
RTVSPost2010Prop40
 90
        0
102
RTVSPost2010PropOp40
 70
     1
102
RTVSPost2010Prop41ColorIndex
 90
       18
102
RTVSPost2010Prop41ColorRGB
 90
        0
102
RTVSPost2010PropOp41
 70
     1
102
RTVSPost2010Prop42
 90
       50
102
RTVSPost2010PropOp42
 70
     1
102
RTVSPost2010Prop43
 90
        3
102
RTVSPost2010PropOp43
 70
     1
102
RTVSPost2010Prop44ColorIndex
 90
        5
102
RTVSPost2010Prop44ColorRGB
 90
      255
102
RTVSPost2010PropOp44
 70
     1
102
RTVSPost2010Prop45
280
     0
102
RTVSPost2010PropOp45
 70
     1
102
RTVSPost2010Prop46
 90
       50
102
RTVSPost2010PropOp46
 70
     1
102
RTVSPost2010Prop47
 90
       50
102
RTVSPost2010PropOp47
 70
     1
102
RTVSPost2010Prop48
 90
       50
102
RTVSPost2010PropOp48
 70
     1
102
RTVSPost2010Prop49
280
     0
102
RTVSPost2010PropOp49
 70
     1
102
RTVSPost2010Prop50
 90
       50
102
RTVSPost2010PropOp50
 70
     1
102
RTVSPost2010Prop51ColorIndex
 90
      256
102
RTVSPost2010Prop51ColorRGB
 90
-16777216
102
RTVSPost2010PropOp51
 70
     0
102
RTVSPost2010Prop52
140
1.0
102
RTVSPost2010PropOp52
 70
     0
102
RTVSPost2010Prop53
 90
        2
102
RTVSPost2010PropOp53
 70
     1
102
RTVSPost2010Prop54
  1
strokes_ogs.tif
102
RTVSPost2010PropOp54
 70
     1
102
RTVSPost2010Prop55
280
     0
102
RTVSPost2010PropOp55
 70
     1
102
RTVSPost2010Prop56
140
1.0
102
RTVSPost2010PropOp56
 70
     1
102
RTVSPost2010Prop57
140
1.0
102
RTVSPost2010PropOp57
 70
     1
102
RTVSPropertyOp0
 70
     1
102
RTVSPropertyOp1
 70
     1
102
RTVSPropertyOp2
 70
     1
102
RTVSPropertyOp3
 70
     1
102
RTVSPropertyOp4
 70
     1
102
RTVSPropertyOp5
 70
     1
102
RTVSPropertyOp6
 70
     1
102
RTVSPropertyOp7
 70
     1
102
RTVSPropertyOp8
 70
     1
102
RTVSPropertyOp9
 70
     1
102
RTVSPropertyOp10
 70
     1
102
RTVSPropertyOp11
 70
     1
102
RTVSPropertyOp12
 70
     1
102
RTVSPropertyOp13
 70
     1
102
RTVSPropertyOp14
 70
     1
102
RTVSPropertyOp15
 70
     1
102
RTVSPropertyOp16
 70
     1
102
RTVSPropertyOp17
 70
     1
102
RTVSPropertyOp18
 70
     1
102
RTVSPropertyOp19
 70
     1
102
RTVSPropertyOp20
 70
     1
102
RTVSPropertyOp21
 70
     1
102
RTVSPropertyOp22
 70
     1
102
RTVSPropertyOp23
 70
     1
102
RTVSPropertyOp24
 70
     1
102
RTVSPropertyOp25
 70
     1
102
RTVSPropertyOp26
 70
     1
102
RTVSPropertyOp27
 70
     1
102
RTVSPropertyOp28
 70
     1
102
RTVSPropertyOp29
 70
     1
102
RTVSPropertyOp30
 70
     1
102
RTVSPropertyOp31
 70
     1
102
RTVSPropertyOp32
 70
     1
102
RTVSPropertyOp33
 70
     1
102
RTVSPropertyOp34
 70
     1
102
RTVSPropertyOp35
 70
     1
102
RTVSPropertyOp36
 70
     1
102
RTVSPropertyOp37
 70
     1
102
RTVSPropertyOp38
 70
     1
102
RTVSPropertyOp39
 70
     1
102
RTVSPropertyOp40
 70
     1
102
RTVSPropertyOp41
 70
     1
102
RTVSPropertyOp42
 70
     1
102
RTVSPropertyOp43
 70
     1
102
RTVSPropertyOp44
 70
     1
102
RTVSPropertyOp45
 70
     1
102
RTVSPropertyOp46
 70
     1
102
RTVSPropertyOp47
 70
     1
102
RTVSPropertyOp48
 70
     1
102
RTVSPropertyOp49
 70
     1
102
RTVSPropertyOp50
 70
     1
102
RTVSPropertyOp51
 70
     0
102
RTVSPropertyOp52
 70
     0
102
RTVSPropertyOp53
 70
     1
102
RTVSPropertyOp54
 70
     1
102
RTVSPropertyOp55
 70
     1
102
RTVSPropertyOp56
 70
     1
102
RTVSPropertyOp57
 70
     1
102
RTVSPropertyOp58
 70
     1
102
RTVSPropertyOp59
 70
     1
102
RTVSPropertyOp60
 70
     1
102
RTVSPropertyOp61
 70
     1
102
RTVSPropertyOp62
 70
     1
  0
XRECORD
  5
F42CF
102
{ACAD_REACTORS
330
F42CE
102
}
330
F42CE
100
AcDbXrecord
280
     1
102
RTVSPost2010Prop28
280
     0
102
RTVSPost2010PropOp28
 70
     1
102
RTVSPost2010Prop29
280
     1
102
RTVSPost2010PropOp29
 70
     1
102
RTVSPost2010Prop30
280
     1
102
RTVSPost2010PropOp30
 70
     1
102
RTVSPost2010Prop31
280
     0
102
RTVSPost2010PropOp31
 70
     1
102
RTVSPost2010Prop32
280
     0
102
RTVSPost2010PropOp32
 70
     1
102
RTVSPost2010Prop33
280
     0
102
RTVSPost2010PropOp33
 70
     1
102
RTVSPost2010Prop34
280
     0
102
RTVSPost2010PropOp34
 70
     1
102
RTVSPost2010Prop35
280
     0
102
RTVSPost2010PropOp35
 70
     1
102
RTVSPost2010Prop36
280
     0
102
RTVSPost2010PropOp36
 70
     1
102
RTVSPost2010Prop37
 90
       50
102
RTVSPost2010PropOp37
 70
     1
102
RTVSPost2010Prop38
140
0.0
102
RTVSPost2010PropOp38
 70
     1
102
RTVSPost2010Prop39
140
1.0
102
RTVSPost2010PropOp39
 70
     1
102
RTVSPost2010Prop40
 90
        0
102
RTVSPost2010PropOp40
 70
     1
102
RTVSPost2010Prop41ColorIndex
 90
       18
102
RTVSPost2010Prop41ColorRGB
 90
        0
102
RTVSPost2010PropOp41
 70
     1
102
RTVSPost2010Prop42
 90
       50
102
RTVSPost2010PropOp42
 70
     1
102
RTVSPost2010Prop43
 90
        3
102
RTVSPost2010PropOp43
 70
     1
102
RTVSPost2010Prop44ColorIndex
 90
        5
102
RTVSPost2010Prop44ColorRGB
 90
      255
102
RTVSPost2010PropOp44
 70
     1
102
RTVSPost2010Prop45
280
     0
102
RTVSPost2010PropOp45
 70
     1
102
RTVSPost2010Prop46
 90
       50
102
RTVSPost2010PropOp46
 70
     1
102
RTVSPost2010Prop47
 90
       50
102
RTVSPost2010PropOp47
 70
     1
102
RTVSPost2010Prop48
 90
       50
102
RTVSPost2010PropOp48
 70
     1
102
RTVSPost2010Prop49
280
     0
102
RTVSPost2010PropOp49
 70
     1
102
RTVSPost2010Prop50
 90
       50
102
RTVSPost2010PropOp50
 70
     1
102
RTVSPost2010Prop51ColorIndex
 90
      256
102
RTVSPost2010Prop51ColorRGB
 90
-16777216
102
RTVSPost2010PropOp51
 70
     0
102
RTVSPost2010Prop52
140
1.0
102
RTVSPost2010PropOp52
 70
     0
102
RTVSPost2010Prop53
 90
        2
102
RTVSPost2010PropOp53
 70
     1
102
RTVSPost2010Prop54
  1
strokes_ogs.tif
102
RTVSPost2010PropOp54
 70
     1
102
RTVSPost2010Prop55
280
     0
102
RTVSPost2010PropOp55
 70
     1
102
RTVSPost2010Prop56
140
1.0
102
RTVSPost2010PropOp56
 70
     1
102
RTVSPost2010Prop57
140
1.0
102
RTVSPost2010PropOp57
 70
     1
102
RTVSPropertyOp0
 70
     1
102
RTVSPropertyOp1
 70
     1
102
RTVSPropertyOp2
 70
     1
102
RTVSPropertyOp3
 70
     1
102
RTVSPropertyOp4
 70
     1
102
RTVSPropertyOp5
 70
     1
102
RTVSPropertyOp6
 70
     1
102
RTVSPropertyOp7
 70
     1
102
RTVSPropertyOp8
 70
     1
102
RTVSPropertyOp9
 70
     1
102
RTVSPropertyOp10
 70
     1
102
RTVSPropertyOp11
 70
     1
102
RTVSPropertyOp12
 70
     1
102
RTVSPropertyOp13
 70
     1
102
RTVSPropertyOp14
 70
     1
102
RTVSPropertyOp15
 70
     1
102
RTVSPropertyOp16
 70
     1
102
RTVSPropertyOp17
 70
     1
102
RTVSPropertyOp18
 70
     1
102
RTVSPropertyOp19
 70
     1
102
RTVSPropertyOp20
 70
     1
102
RTVSPropertyOp21
 70
     1
102
RTVSPropertyOp22
 70
     1
102
RTVSPropertyOp23
 70
     1
102
RTVSPropertyOp24
 70
     1
102
RTVSPropertyOp25
 70
     1
102
RTVSPropertyOp26
 70
     1
102
RTVSPropertyOp27
 70
     1
102
RTVSPropertyOp28
 70
     1
102
RTVSPropertyOp29
 70
     1
102
RTVSPropertyOp30
 70
     1
102
RTVSPropertyOp31
 70
     1
102
RTVSPropertyOp32
 70
     1
102
RTVSPropertyOp33
 70
     1
102
RTVSPropertyOp34
 70
     1
102
RTVSPropertyOp35
 70
     1
102
RTVSPropertyOp36
 70
     1
102
RTVSPropertyOp37
 70
     1
102
RTVSPropertyOp38
 70
     1
102
RTVSPropertyOp39
 70
     1
102
RTVSPropertyOp40
 70
     1
102
RTVSPropertyOp41
 70
     1
102
RTVSPropertyOp42
 70
     1
102
RTVSPropertyOp43
 70
     1
102
RTVSPropertyOp44
 70
     1
102
RTVSPropertyOp45
 70
     1
102
RTVSPropertyOp46
 70
     1
102
RTVSPropertyOp47
 70
     1
102
RTVSPropertyOp48
 70
     1
102
RTVSPropertyOp49
 70
     1
102
RTVSPropertyOp50
 70
     1
102
RTVSPropertyOp51
 70
     0
102
RTVSPropertyOp52
 70
     0
102
RTVSPropertyOp53
 70
     1
102
RTVSPropertyOp54
 70
     1
102
RTVSPropertyOp55
 70
     1
102
RTVSPropertyOp56
 70
     1
102
RTVSPropertyOp57
 70
     1
102
RTVSPropertyOp58
 70
     1
102
RTVSPropertyOp59
 70
     1
102
RTVSPropertyOp60
 70
     1
102
RTVSPropertyOp61
 70
     1
102
RTVSPropertyOp62
 70
     1
  0
XRECORD
  5
F42D1
102
{ACAD_REACTORS
330
F42D0
102
}
330
F42D0
100
AcDbXrecord
280
     1
102
RTVSPost2010Prop28
280
     0
102
RTVSPost2010PropOp28
 70
     1
102
RTVSPost2010Prop29
280
     1
102
RTVSPost2010PropOp29
 70
     1
102
RTVSPost2010Prop30
280
     1
102
RTVSPost2010PropOp30
 70
     1
102
RTVSPost2010Prop31
280
     0
102
RTVSPost2010PropOp31
 70
     1
102
RTVSPost2010Prop32
280
     0
102
RTVSPost2010PropOp32
 70
     1
102
RTVSPost2010Prop33
280
     0
102
RTVSPost2010PropOp33
 70
     1
102
RTVSPost2010Prop34
280
     0
102
RTVSPost2010PropOp34
 70
     1
102
RTVSPost2010Prop35
280
     0
102
RTVSPost2010PropOp35
 70
     1
102
RTVSPost2010Prop36
280
     0
102
RTVSPost2010PropOp36
 70
     1
102
RTVSPost2010Prop37
 90
       50
102
RTVSPost2010PropOp37
 70
     1
102
RTVSPost2010Prop38
140
0.0
102
RTVSPost2010PropOp38
 70
     1
102
RTVSPost2010Prop39
140
1.0
102
RTVSPost2010PropOp39
 70
     1
102
RTVSPost2010Prop40
 90
        0
102
RTVSPost2010PropOp40
 70
     1
102
RTVSPost2010Prop41ColorIndex
 90
       18
102
RTVSPost2010Prop41ColorRGB
 90
        0
102
RTVSPost2010PropOp41
 70
     1
102
RTVSPost2010Prop42
 90
       50
102
RTVSPost2010PropOp42
 70
     1
102
RTVSPost2010Prop43
 90
        3
102
RTVSPost2010PropOp43
 70
     1
102
RTVSPost2010Prop44ColorIndex
 90
        5
102
RTVSPost2010Prop44ColorRGB
 90
      255
102
RTVSPost2010PropOp44
 70
     1
102
RTVSPost2010Prop45
280
     0
102
RTVSPost2010PropOp45
 70
     1
102
RTVSPost2010Prop46
 90
       50
102
RTVSPost2010PropOp46
 70
     1
102
RTVSPost2010Prop47
 90
       50
102
RTVSPost2010PropOp47
 70
     1
102
RTVSPost2010Prop48
 90
       50
102
RTVSPost2010PropOp48
 70
     1
102
RTVSPost2010Prop49
280
     0
102
RTVSPost2010PropOp49
 70
     1
102
RTVSPost2010Prop50
 90
       50
102
RTVSPost2010PropOp50
 70
     1
102
RTVSPost2010Prop51ColorIndex
 90
      256
102
RTVSPost2010Prop51ColorRGB
 90
-16777216
102
RTVSPost2010PropOp51
 70
     0
102
RTVSPost2010Prop52
140
1.0
102
RTVSPost2010PropOp52
 70
     0
102
RTVSPost2010Prop53
 90
        2
102
RTVSPost2010PropOp53
 70
     1
102
RTVSPost2010Prop54
  1
strokes_ogs.tif
102
RTVSPost2010PropOp54
 70
     1
102
RTVSPost2010Prop55
280
     0
102
RTVSPost2010PropOp55
 70
     1
102
RTVSPost2010Prop56
140
1.0
102
RTVSPost2010PropOp56
 70
     1
102
RTVSPost2010Prop57
140
1.0
102
RTVSPost2010PropOp57
 70
     1
102
RTVSPropertyOp0
 70
     1
102
RTVSPropertyOp1
 70
     1
102
RTVSPropertyOp2
 70
     1
102
RTVSPropertyOp3
 70
     1
102
RTVSPropertyOp4
 70
     1
102
RTVSPropertyOp5
 70
     1
102
RTVSPropertyOp6
 70
     1
102
RTVSPropertyOp7
 70
     1
102
RTVSPropertyOp8
 70
     1
102
RTVSPropertyOp9
 70
     1
102
RTVSPropertyOp10
 70
     1
102
RTVSPropertyOp11
 70
     1
102
RTVSPropertyOp12
 70
     1
102
RTVSPropertyOp13
 70
     1
102
RTVSPropertyOp14
 70
     1
102
RTVSPropertyOp15
 70
     1
102
RTVSPropertyOp16
 70
     1
102
RTVSPropertyOp17
 70
     1
102
RTVSPropertyOp18
 70
     1
102
RTVSPropertyOp19
 70
     1
102
RTVSPropertyOp20
 70
     1
102
RTVSPropertyOp21
 70
     1
102
RTVSPropertyOp22
 70
     1
102
RTVSPropertyOp23
 70
     1
102
RTVSPropertyOp24
 70
     1
102
RTVSPropertyOp25
 70
     1
102
RTVSPropertyOp26
 70
     1
102
RTVSPropertyOp27
 70
     1
102
RTVSPropertyOp28
 70
     1
102
RTVSPropertyOp29
 70
     1
102
RTVSPropertyOp30
 70
     1
102
RTVSPropertyOp31
 70
     1
102
RTVSPropertyOp32
 70
     1
102
RTVSPropertyOp33
 70
     1
102
RTVSPropertyOp34
 70
     1
102
RTVSPropertyOp35
 70
     1
102
RTVSPropertyOp36
 70
     1
102
RTVSPropertyOp37
 70
     1
102
RTVSPropertyOp38
 70
     1
102
RTVSPropertyOp39
 70
     1
102
RTVSPropertyOp40
 70
     1
102
RTVSPropertyOp41
 70
     1
102
RTVSPropertyOp42
 70
     1
102
RTVSPropertyOp43
 70
     1
102
RTVSPropertyOp44
 70
     1
102
RTVSPropertyOp45
 70
     1
102
RTVSPropertyOp46
 70
     1
102
RTVSPropertyOp47
 70
     1
102
RTVSPropertyOp48
 70
     1
102
RTVSPropertyOp49
 70
     1
102
RTVSPropertyOp50
 70
     1
102
RTVSPropertyOp51
 70
     0
102
RTVSPropertyOp52
 70
     0
102
RTVSPropertyOp53
 70
     1
102
RTVSPropertyOp54
 70
     1
102
RTVSPropertyOp55
 70
     1
102
RTVSPropertyOp56
 70
     1
102
RTVSPropertyOp57
 70
     1
102
RTVSPropertyOp58
 70
     1
102
RTVSPropertyOp59
 70
     1
102
RTVSPropertyOp60
 70
     1
102
RTVSPropertyOp61
 70
     1
102
RTVSPropertyOp62
 70
     1
  0
XRECORD
  5
F42D9
102
{ACAD_REACTORS
330
F42D8
102
}
330
F42D8
100
AcDbXrecord
280
     1
102
RTVSPost2010Prop28
280
     0
102
RTVSPost2010PropOp28
 70
     1
102
RTVSPost2010Prop29
280
     1
102
RTVSPost2010PropOp29
 70
     1
102
RTVSPost2010Prop30
280
     1
102
RTVSPost2010PropOp30
 70
     1
102
RTVSPost2010Prop31
280
     0
102
RTVSPost2010PropOp31
 70
     1
102
RTVSPost2010Prop32
280
     0
102
RTVSPost2010PropOp32
 70
     1
102
RTVSPost2010Prop33
280
     0
102
RTVSPost2010PropOp33
 70
     1
102
RTVSPost2010Prop34
280
     0
102
RTVSPost2010PropOp34
 70
     1
102
RTVSPost2010Prop35
280
     0
102
RTVSPost2010PropOp35
 70
     1
102
RTVSPost2010Prop36
280
     0
102
RTVSPost2010PropOp36
 70
     1
102
RTVSPost2010Prop37
 90
       50
102
RTVSPost2010PropOp37
 70
     1
102
RTVSPost2010Prop38
140
0.0
102
RTVSPost2010PropOp38
 70
     1
102
RTVSPost2010Prop39
140
1.0
102
RTVSPost2010PropOp39
 70
     1
102
RTVSPost2010Prop40
 90
        0
102
RTVSPost2010PropOp40
 70
     1
102
RTVSPost2010Prop41ColorIndex
 90
       18
102
RTVSPost2010Prop41ColorRGB
 90
        0
102
RTVSPost2010PropOp41
 70
     1
102
RTVSPost2010Prop42
 90
       50
102
RTVSPost2010PropOp42
 70
     1
102
RTVSPost2010Prop43
 90
        3
102
RTVSPost2010PropOp43
 70
     1
102
RTVSPost2010Prop44ColorIndex
 90
        5
102
RTVSPost2010Prop44ColorRGB
 90
      255
102
RTVSPost2010PropOp44
 70
     1
102
RTVSPost2010Prop45
280
     0
102
RTVSPost2010PropOp45
 70
     1
102
RTVSPost2010Prop46
 90
       50
102
RTVSPost2010PropOp46
 70
     1
102
RTVSPost2010Prop47
 90
       50
102
RTVSPost2010PropOp47
 70
     1
102
RTVSPost2010Prop48
 90
       50
102
RTVSPost2010PropOp48
 70
     1
102
RTVSPost2010Prop49
280
     0
102
RTVSPost2010PropOp49
 70
     1
102
RTVSPost2010Prop50
 90
       50
102
RTVSPost2010PropOp50
 70
     1
102
RTVSPost2010Prop51ColorIndex
 90
      256
102
RTVSPost2010Prop51ColorRGB
 90
-16777216
102
RTVSPost2010PropOp51
 70
     0
102
RTVSPost2010Prop52
140
1.0
102
RTVSPost2010PropOp52
 70
     0
102
RTVSPost2010Prop53
 90
        2
102
RTVSPost2010PropOp53
 70
     1
102
RTVSPost2010Prop54
  1
strokes_ogs.tif
102
RTVSPost2010PropOp54
 70
     1
102
RTVSPost2010Prop55
280
     0
102
RTVSPost2010PropOp55
 70
     1
102
RTVSPost2010Prop56
140
1.0
102
RTVSPost2010PropOp56
 70
     1
102
RTVSPost2010Prop57
140
1.0
102
RTVSPost2010PropOp57
 70
     1
102
RTVSPropertyOp0
 70
     1
102
RTVSPropertyOp1
 70
     1
102
RTVSPropertyOp2
 70
     1
102
RTVSPropertyOp3
 70
     1
102
RTVSPropertyOp4
 70
     1
102
RTVSPropertyOp5
 70
     1
102
RTVSPropertyOp6
 70
     1
102
RTVSPropertyOp7
 70
     1
102
RTVSPropertyOp8
 70
     1
102
RTVSPropertyOp9
 70
     1
102
RTVSPropertyOp10
 70
     1
102
RTVSPropertyOp11
 70
     1
102
RTVSPropertyOp12
 70
     1
102
RTVSPropertyOp13
 70
     1
102
RTVSPropertyOp14
 70
     1
102
RTVSPropertyOp15
 70
     1
102
RTVSPropertyOp16
 70
     1
102
RTVSPropertyOp17
 70
     1
102
RTVSPropertyOp18
 70
     1
102
RTVSPropertyOp19
 70
     1
102
RTVSPropertyOp20
 70
     1
102
RTVSPropertyOp21
 70
     1
102
RTVSPropertyOp22
 70
     1
102
RTVSPropertyOp23
 70
     1
102
RTVSPropertyOp24
 70
     1
102
RTVSPropertyOp25
 70
     1
102
RTVSPropertyOp26
 70
     1
102
RTVSPropertyOp27
 70
     1
102
RTVSPropertyOp28
 70
     1
102
RTVSPropertyOp29
 70
     1
102
RTVSPropertyOp30
 70
     1
102
RTVSPropertyOp31
 70
     1
102
RTVSPropertyOp32
 70
     1
102
RTVSPropertyOp33
 70
     1
102
RTVSPropertyOp34
 70
     1
102
RTVSPropertyOp35
 70
     1
102
RTVSPropertyOp36
 70
     1
102
RTVSPropertyOp37
 70
     1
102
RTVSPropertyOp38
 70
     1
102
RTVSPropertyOp39
 70
     1
102
RTVSPropertyOp40
 70
     1
102
RTVSPropertyOp41
 70
     1
102
RTVSPropertyOp42
 70
     1
102
RTVSPropertyOp43
 70
     1
102
RTVSPropertyOp44
 70
     1
102
RTVSPropertyOp45
 70
     1
102
RTVSPropertyOp46
 70
     1
102
RTVSPropertyOp47
 70
     1
102
RTVSPropertyOp48
 70
     1
102
RTVSPropertyOp49
 70
     1
102
RTVSPropertyOp50
 70
     1
102
RTVSPropertyOp51
 70
     0
102
RTVSPropertyOp52
 70
     0
102
RTVSPropertyOp53
 70
     1
102
RTVSPropertyOp54
 70
     1
102
RTVSPropertyOp55
 70
     1
102
RTVSPropertyOp56
 70
     1
102
RTVSPropertyOp57
 70
     1
102
RTVSPropertyOp58
 70
     1
102
RTVSPropertyOp59
 70
     1
102
RTVSPropertyOp60
 70
     1
102
RTVSPropertyOp61
 70
     1
102
RTVSPropertyOp62
 70
     1
  0
XRECORD
  5
F42F5
102
{ACAD_REACTORS
330
F42F4
102
}
330
F42F4
100
AcDbXrecord
280
     1
102
RTVSPost2010Prop28
280
     0
102
RTVSPost2010PropOp28
 70
     1
102
RTVSPost2010Prop29
280
     1
102
RTVSPost2010PropOp29
 70
     1
102
RTVSPost2010Prop30
280
     1
102
RTVSPost2010PropOp30
 70
     1
102
RTVSPost2010Prop31
280
     0
102
RTVSPost2010PropOp31
 70
     1
102
RTVSPost2010Prop32
280
     0
102
RTVSPost2010PropOp32
 70
     1
102
RTVSPost2010Prop33
280
     0
102
RTVSPost2010PropOp33
 70
     1
102
RTVSPost2010Prop34
280
     0
102
RTVSPost2010PropOp34
 70
     1
102
RTVSPost2010Prop35
280
     0
102
RTVSPost2010PropOp35
 70
     1
102
RTVSPost2010Prop36
280
     0
102
RTVSPost2010PropOp36
 70
     1
102
RTVSPost2010Prop37
 90
       50
102
RTVSPost2010PropOp37
 70
     0
102
RTVSPost2010Prop38
140
0.0
102
RTVSPost2010PropOp38
 70
     0
102
RTVSPost2010Prop39
140
1.0
102
RTVSPost2010PropOp39
 70
     0
102
RTVSPost2010Prop40
 90
        0
102
RTVSPost2010PropOp40
 70
     0
102
RTVSPost2010Prop41ColorIndex
 90
       18
102
RTVSPost2010Prop41ColorRGB
 90
        0
102
RTVSPost2010PropOp41
 70
     0
102
RTVSPost2010Prop42
 90
       50
102
RTVSPost2010PropOp42
 70
     0
102
RTVSPost2010Prop43
 90
        3
102
RTVSPost2010PropOp43
 70
     0
102
RTVSPost2010Prop44ColorIndex
 90
        5
102
RTVSPost2010Prop44ColorRGB
 90
      255
102
RTVSPost2010PropOp44
 70
     0
102
RTVSPost2010Prop45
280
     0
102
RTVSPost2010PropOp45
 70
     1
102
RTVSPost2010Prop46
 90
       50
102
RTVSPost2010PropOp46
 70
     0
102
RTVSPost2010Prop47
 90
       50
102
RTVSPost2010PropOp47
 70
     0
102
RTVSPost2010Prop48
 90
       50
102
RTVSPost2010PropOp48
 70
     0
102
RTVSPost2010Prop49
280
     0
102
RTVSPost2010PropOp49
 70
     1
102
RTVSPost2010Prop50
 90
       50
102
RTVSPost2010PropOp50
 70
     0
102
RTVSPost2010Prop51ColorIndex
 90
      256
102
RTVSPost2010Prop51ColorRGB
 90
-16777216
102
RTVSPost2010PropOp51
 70
     0
102
RTVSPost2010Prop52
140
1.0
102
RTVSPost2010PropOp52
 70
     0
102
RTVSPost2010Prop53
 90
        2
102
RTVSPost2010PropOp53
 70
     0
102
RTVSPost2010Prop54
  1
strokes_ogs.tif
102
RTVSPost2010PropOp54
 70
     0
102
RTVSPost2010Prop55
280
     0
102
RTVSPost2010PropOp55
 70
     1
102
RTVSPost2010Prop56
140
1.0
102
RTVSPost2010PropOp56
 70
     0
102
RTVSPost2010Prop57
140
1.0
102
RTVSPost2010PropOp57
 70
     0
102
RTVSPropertyOp0
 70
     0
102
RTVSPropertyOp1
 70
     0
102
RTVSPropertyOp2
 70
     0
102
RTVSPropertyOp3
 70
     0
102
RTVSPropertyOp4
 70
     0
102
RTVSPropertyOp5
 70
     0
102
RTVSPropertyOp6
 70
     0
102
RTVSPropertyOp7
 70
     0
102
RTVSPropertyOp8
 70
     0
102
RTVSPropertyOp9
 70
     0
102
RTVSPropertyOp10
 70
     0
102
RTVSPropertyOp11
 70
     0
102
RTVSPropertyOp12
 70
     0
102
RTVSPropertyOp13
 70
     0
102
RTVSPropertyOp14
 70
     2
102
RTVSPropertyOp15
 70
     0
102
RTVSPropertyOp16
 70
     0
102
RTVSPropertyOp17
 70
     0
102
RTVSPropertyOp18
 70
     0
102
RTVSPropertyOp19
 70
     0
102
RTVSPropertyOp20
 70
     0
102
RTVSPropertyOp21
 70
     0
102
RTVSPropertyOp22
 70
     0
102
RTVSPropertyOp23
 70
     0
102
RTVSPropertyOp24
 70
     0
102
RTVSPropertyOp25
 70
     0
102
RTVSPropertyOp26
 70
     0
102
RTVSPropertyOp27
 70
     0
102
RTVSPropertyOp28
 70
     1
102
RTVSPropertyOp29
 70
     1
102
RTVSPropertyOp30
 70
     1
102
RTVSPropertyOp31
 70
     1
102
RTVSPropertyOp32
 70
     1
102
RTVSPropertyOp33
 70
     1
102
RTVSPropertyOp34
 70
     1
102
RTVSPropertyOp35
 70
     1
102
RTVSPropertyOp36
 70
     1
102
RTVSPropertyOp37
 70
     0
102
RTVSPropertyOp38
 70
     0
102
RTVSPropertyOp39
 70
     0
102
RTVSPropertyOp40
 70
     0
102
RTVSPropertyOp41
 70
     0
102
RTVSPropertyOp42
 70
     0
102
RTVSPropertyOp43
 70
     0
102
RTVSPropertyOp44
 70
     0
102
RTVSPropertyOp45
 70
     1
102
RTVSPropertyOp46
 70
     0
102
RTVSPropertyOp47
 70
     0
102
RTVSPropertyOp48
 70
     0
102
RTVSPropertyOp49
 70
     1
102
RTVSPropertyOp50
 70
     0
102
RTVSPropertyOp51
 70
     0
102
RTVSPropertyOp52
 70
     0
102
RTVSPropertyOp53
 70
     0
102
RTVSPropertyOp54
 70
     0
102
RTVSPropertyOp55
 70
     1
102
RTVSPropertyOp56
 70
     0
102
RTVSPropertyOp57
 70
     0
102
RTVSPropertyOp58
 70
     0
102
RTVSPropertyOp59
 70
     0
102
RTVSPropertyOp60
 70
     0
102
RTVSPropertyOp61
 70
     0
102
RTVSPropertyOp62
 70
     0
  0
XRECORD
  5
F42E5
102
{ACAD_REACTORS
330
F42E4
102
}
330
F42E4
100
AcDbXrecord
280
     1
102
RTVSPost2010Prop28
280
     0
102
RTVSPost2010PropOp28
 70
     1
102
RTVSPost2010Prop29
280
     1
102
RTVSPost2010PropOp29
 70
     1
102
RTVSPost2010Prop30
280
     1
102
RTVSPost2010PropOp30
 70
     1
102
RTVSPost2010Prop31
280
     0
102
RTVSPost2010PropOp31
 70
     1
102
RTVSPost2010Prop32
280
     0
102
RTVSPost2010PropOp32
 70
     1
102
RTVSPost2010Prop33
280
     0
102
RTVSPost2010PropOp33
 70
     1
102
RTVSPost2010Prop34
280
     0
102
RTVSPost2010PropOp34
 70
     1
102
RTVSPost2010Prop35
280
     0
102
RTVSPost2010PropOp35
 70
     1
102
RTVSPost2010Prop36
280
     0
102
RTVSPost2010PropOp36
 70
     1
102
RTVSPost2010Prop37
 90
       50
102
RTVSPost2010PropOp37
 70
     1
102
RTVSPost2010Prop38
140
0.0
102
RTVSPost2010PropOp38
 70
     1
102
RTVSPost2010Prop39
140
1.0
102
RTVSPost2010PropOp39
 70
     1
102
RTVSPost2010Prop40
 90
        0
102
RTVSPost2010PropOp40
 70
     1
102
RTVSPost2010Prop41ColorIndex
 90
       18
102
RTVSPost2010Prop41ColorRGB
 90
        0
102
RTVSPost2010PropOp41
 70
     1
102
RTVSPost2010Prop42
 90
       50
102
RTVSPost2010PropOp42
 70
     1
102
RTVSPost2010Prop43
 90
        3
102
RTVSPost2010PropOp43
 70
     1
102
RTVSPost2010Prop44ColorIndex
 90
        5
102
RTVSPost2010Prop44ColorRGB
 90
      255
102
RTVSPost2010PropOp44
 70
     1
102
RTVSPost2010Prop45
280
     0
102
RTVSPost2010PropOp45
 70
     1
102
RTVSPost2010Prop46
 90
       50
102
RTVSPost2010PropOp46
 70
     1
102
RTVSPost2010Prop47
 90
       50
102
RTVSPost2010PropOp47
 70
     1
102
RTVSPost2010Prop48
 90
       50
102
RTVSPost2010PropOp48
 70
     1
102
RTVSPost2010Prop49
280
     0
102
RTVSPost2010PropOp49
 70
     1
102
RTVSPost2010Prop50
 90
       50
102
RTVSPost2010PropOp50
 70
     1
102
RTVSPost2010Prop51ColorIndex
 90
      256
102
RTVSPost2010Prop51ColorRGB
 90
-16777216
102
RTVSPost2010PropOp51
 70
     0
102
RTVSPost2010Prop52
140
1.0
102
RTVSPost2010PropOp52
 70
     0
102
RTVSPost2010Prop53
 90
        2
102
RTVSPost2010PropOp53
 70
     1
102
RTVSPost2010Prop54
  1
strokes_ogs.tif
102
RTVSPost2010PropOp54
 70
     1
102
RTVSPost2010Prop55
280
     0
102
RTVSPost2010PropOp55
 70
     1
102
RTVSPost2010Prop56
140
1.0
102
RTVSPost2010PropOp56
 70
     1
102
RTVSPost2010Prop57
140
1.0
102
RTVSPost2010PropOp57
 70
     1
102
RTVSPropertyOp0
 70
     1
102
RTVSPropertyOp1
 70
     1
102
RTVSPropertyOp2
 70
     1
102
RTVSPropertyOp3
 70
     1
102
RTVSPropertyOp4
 70
     1
102
RTVSPropertyOp5
 70
     1
102
RTVSPropertyOp6
 70
     1
102
RTVSPropertyOp7
 70
     1
102
RTVSPropertyOp8
 70
     1
102
RTVSPropertyOp9
 70
     1
102
RTVSPropertyOp10
 70
     1
102
RTVSPropertyOp11
 70
     1
102
RTVSPropertyOp12
 70
     1
102
RTVSPropertyOp13
 70
     1
102
RTVSPropertyOp14
 70
     1
102
RTVSPropertyOp15
 70
     1
102
RTVSPropertyOp16
 70
     1
102
RTVSPropertyOp17
 70
     1
102
RTVSPropertyOp18
 70
     1
102
RTVSPropertyOp19
 70
     1
102
RTVSPropertyOp20
 70
     1
102
RTVSPropertyOp21
 70
     1
102
RTVSPropertyOp22
 70
     1
102
RTVSPropertyOp23
 70
     1
102
RTVSPropertyOp24
 70
     1
102
RTVSPropertyOp25
 70
     1
102
RTVSPropertyOp26
 70
     1
102
RTVSPropertyOp27
 70
     1
102
RTVSPropertyOp28
 70
     1
102
RTVSPropertyOp29
 70
     1
102
RTVSPropertyOp30
 70
     1
102
RTVSPropertyOp31
 70
     1
102
RTVSPropertyOp32
 70
     1
102
RTVSPropertyOp33
 70
     1
102
RTVSPropertyOp34
 70
     1
102
RTVSPropertyOp35
 70
     1
102
RTVSPropertyOp36
 70
     1
102
RTVSPropertyOp37
 70
     1
102
RTVSPropertyOp38
 70
     1
102
RTVSPropertyOp39
 70
     1
102
RTVSPropertyOp40
 70
     1
102
RTVSPropertyOp41
 70
     1
102
RTVSPropertyOp42
 70
     1
102
RTVSPropertyOp43
 70
     1
102
RTVSPropertyOp44
 70
     1
102
RTVSPropertyOp45
 70
     1
102
RTVSPropertyOp46
 70
     1
102
RTVSPropertyOp47
 70
     1
102
RTVSPropertyOp48
 70
     1
102
RTVSPropertyOp49
 70
     1
102
RTVSPropertyOp50
 70
     1
102
RTVSPropertyOp51
 70
     0
102
RTVSPropertyOp52
 70
     0
102
RTVSPropertyOp53
 70
     1
102
RTVSPropertyOp54
 70
     1
102
RTVSPropertyOp55
 70
     1
102
RTVSPropertyOp56
 70
     1
102
RTVSPropertyOp57
 70
     1
102
RTVSPropertyOp58
 70
     1
102
RTVSPropertyOp59
 70
     1
102
RTVSPropertyOp60
 70
     1
102
RTVSPropertyOp61
 70
     1
102
RTVSPropertyOp62
 70
     1
  0
XRECORD
  5
F42F7
102
{ACAD_REACTORS
330
F42F6
102
}
330
F42F6
100
AcDbXrecord
280
     1
102
RTVSPost2010Prop28
280
     0
102
RTVSPost2010PropOp28
 70
     1
102
RTVSPost2010Prop29
280
     1
102
RTVSPost2010PropOp29
 70
     1
102
RTVSPost2010Prop30
280
     1
102
RTVSPost2010PropOp30
 70
     1
102
RTVSPost2010Prop31
280
     0
102
RTVSPost2010PropOp31
 70
     1
102
RTVSPost2010Prop32
280
     0
102
RTVSPost2010PropOp32
 70
     1
102
RTVSPost2010Prop33
280
     0
102
RTVSPost2010PropOp33
 70
     1
102
RTVSPost2010Prop34
280
     0
102
RTVSPost2010PropOp34
 70
     1
102
RTVSPost2010Prop35
280
     0
102
RTVSPost2010PropOp35
 70
     1
102
RTVSPost2010Prop36
280
     0
102
RTVSPost2010PropOp36
 70
     1
102
RTVSPost2010Prop37
 90
       50
102
RTVSPost2010PropOp37
 70
     0
102
RTVSPost2010Prop38
140
0.0
102
RTVSPost2010PropOp38
 70
     0
102
RTVSPost2010Prop39
140
1.0
102
RTVSPost2010PropOp39
 70
     0
102
RTVSPost2010Prop40
 90
        0
102
RTVSPost2010PropOp40
 70
     0
102
RTVSPost2010Prop41ColorIndex
 90
       18
102
RTVSPost2010Prop41ColorRGB
 90
        0
102
RTVSPost2010PropOp41
 70
     0
102
RTVSPost2010Prop42
 90
       50
102
RTVSPost2010PropOp42
 70
     0
102
RTVSPost2010Prop43
 90
        3
102
RTVSPost2010PropOp43
 70
     0
102
RTVSPost2010Prop44ColorIndex
 90
        5
102
RTVSPost2010Prop44ColorRGB
 90
      255
102
RTVSPost2010PropOp44
 70
     0
102
RTVSPost2010Prop45
280
     0
102
RTVSPost2010PropOp45
 70
     1
102
RTVSPost2010Prop46
 90
       50
102
RTVSPost2010PropOp46
 70
     0
102
RTVSPost2010Prop47
 90
       50
102
RTVSPost2010PropOp47
 70
     0
102
RTVSPost2010Prop48
 90
       50
102
RTVSPost2010PropOp48
 70
     0
102
RTVSPost2010Prop49
280
     0
102
RTVSPost2010PropOp49
 70
     1
102
RTVSPost2010Prop50
 90
       50
102
RTVSPost2010PropOp50
 70
     0
102
RTVSPost2010Prop51ColorIndex
 90
      256
102
RTVSPost2010Prop51ColorRGB
 90
-16777216
102
RTVSPost2010PropOp51
 70
     0
102
RTVSPost2010Prop52
140
1.0
102
RTVSPost2010PropOp52
 70
     0
102
RTVSPost2010Prop53
 90
        2
102
RTVSPost2010PropOp53
 70
     0
102
RTVSPost2010Prop54
  1
strokes_ogs.tif
102
RTVSPost2010PropOp54
 70
     0
102
RTVSPost2010Prop55
280
     0
102
RTVSPost2010PropOp55
 70
     1
102
RTVSPost2010Prop56
140
1.0
102
RTVSPost2010PropOp56
 70
     0
102
RTVSPost2010Prop57
140
1.0
102
RTVSPost2010PropOp57
 70
     0
102
RTVSPropertyOp0
 70
     0
102
RTVSPropertyOp1
 70
     0
102
RTVSPropertyOp2
 70
     0
102
RTVSPropertyOp3
 70
     0
102
RTVSPropertyOp4
 70
     0
102
RTVSPropertyOp5
 70
     0
102
RTVSPropertyOp6
 70
     0
102
RTVSPropertyOp7
 70
     0
102
RTVSPropertyOp8
 70
     0
102
RTVSPropertyOp9
 70
     0
102
RTVSPropertyOp10
 70
     0
102
RTVSPropertyOp11
 70
     0
102
RTVSPropertyOp12
 70
     0
102
RTVSPropertyOp13
 70
     0
102
RTVSPropertyOp14
 70
     2
102
RTVSPropertyOp15
 70
     0
102
RTVSPropertyOp16
 70
     0
102
RTVSPropertyOp17
 70
     0
102
RTVSPropertyOp18
 70
     0
102
RTVSPropertyOp19
 70
     0
102
RTVSPropertyOp20
 70
     0
102
RTVSPropertyOp21
 70
     0
102
RTVSPropertyOp22
 70
     0
102
RTVSPropertyOp23
 70
     0
102
RTVSPropertyOp24
 70
     0
102
RTVSPropertyOp25
 70
     0
102
RTVSPropertyOp26
 70
     0
102
RTVSPropertyOp27
 70
     0
102
RTVSPropertyOp28
 70
     1
102
RTVSPropertyOp29
 70
     1
102
RTVSPropertyOp30
 70
     1
102
RTVSPropertyOp31
 70
     1
102
RTVSPropertyOp32
 70
     1
102
RTVSPropertyOp33
 70
     1
102
RTVSPropertyOp34
 70
     1
102
RTVSPropertyOp35
 70
     1
102
RTVSPropertyOp36
 70
     1
102
RTVSPropertyOp37
 70
     0
102
RTVSPropertyOp38
 70
     0
102
RTVSPropertyOp39
 70
     0
102
RTVSPropertyOp40
 70
     0
102
RTVSPropertyOp41
 70
     0
102
RTVSPropertyOp42
 70
     0
102
RTVSPropertyOp43
 70
     0
102
RTVSPropertyOp44
 70
     0
102
RTVSPropertyOp45
 70
     1
102
RTVSPropertyOp46
 70
     0
102
RTVSPropertyOp47
 70
     0
102
RTVSPropertyOp48
 70
     0
102
RTVSPropertyOp49
 70
     1
102
RTVSPropertyOp50
 70
     0
102
RTVSPropertyOp51
 70
     0
102
RTVSPropertyOp52
 70
     0
102
RTVSPropertyOp53
 70
     0
102
RTVSPropertyOp54
 70
     0
102
RTVSPropertyOp55
 70
     1
102
RTVSPropertyOp56
 70
     0
102
RTVSPropertyOp57
 70
     0
102
RTVSPropertyOp58
 70
     0
102
RTVSPropertyOp59
 70
     0
102
RTVSPropertyOp60
 70
     0
102
RTVSPropertyOp61
 70
     0
102
RTVSPropertyOp62
 70
     0
  0
XRECORD
  5
F42DD
102
{ACAD_REACTORS
330
F42DC
102
}
330
F42DC
100
AcDbXrecord
280
     1
102
RTVSPost2010Prop28
280
     0
102
RTVSPost2010PropOp28
 70
     1
102
RTVSPost2010Prop29
280
     1
102
RTVSPost2010PropOp29
 70
     1
102
RTVSPost2010Prop30
280
     1
102
RTVSPost2010PropOp30
 70
     1
102
RTVSPost2010Prop31
280
     0
102
RTVSPost2010PropOp31
 70
     1
102
RTVSPost2010Prop32
280
     0
102
RTVSPost2010PropOp32
 70
     1
102
RTVSPost2010Prop33
280
     0
102
RTVSPost2010PropOp33
 70
     1
102
RTVSPost2010Prop34
280
     0
102
RTVSPost2010PropOp34
 70
     1
102
RTVSPost2010Prop35
280
     0
102
RTVSPost2010PropOp35
 70
     1
102
RTVSPost2010Prop36
280
     0
102
RTVSPost2010PropOp36
 70
     1
102
RTVSPost2010Prop37
 90
       50
102
RTVSPost2010PropOp37
 70
     1
102
RTVSPost2010Prop38
140
0.0
102
RTVSPost2010PropOp38
 70
     1
102
RTVSPost2010Prop39
140
1.0
102
RTVSPost2010PropOp39
 70
     1
102
RTVSPost2010Prop40
 90
        0
102
RTVSPost2010PropOp40
 70
     1
102
RTVSPost2010Prop41ColorIndex
 90
       18
102
RTVSPost2010Prop41ColorRGB
 90
        0
102
RTVSPost2010PropOp41
 70
     1
102
RTVSPost2010Prop42
 90
       50
102
RTVSPost2010PropOp42
 70
     1
102
RTVSPost2010Prop43
 90
        3
102
RTVSPost2010PropOp43
 70
     1
102
RTVSPost2010Prop44ColorIndex
 90
        5
102
RTVSPost2010Prop44ColorRGB
 90
      255
102
RTVSPost2010PropOp44
 70
     1
102
RTVSPost2010Prop45
280
     0
102
RTVSPost2010PropOp45
 70
     1
102
RTVSPost2010Prop46
 90
       50
102
RTVSPost2010PropOp46
 70
     1
102
RTVSPost2010Prop47
 90
       50
102
RTVSPost2010PropOp47
 70
     1
102
RTVSPost2010Prop48
 90
       50
102
RTVSPost2010PropOp48
 70
     1
102
RTVSPost2010Prop49
280
     0
102
RTVSPost2010PropOp49
 70
     1
102
RTVSPost2010Prop50
 90
       50
102
RTVSPost2010PropOp50
 70
     1
102
RTVSPost2010Prop51ColorIndex
 90
      256
102
RTVSPost2010Prop51ColorRGB
 90
-16777216
102
RTVSPost2010PropOp51
 70
     0
102
RTVSPost2010Prop52
140
1.0
102
RTVSPost2010PropOp52
 70
     0
102
RTVSPost2010Prop53
 90
        2
102
RTVSPost2010PropOp53
 70
     1
102
RTVSPost2010Prop54
  1
strokes_ogs.tif
102
RTVSPost2010PropOp54
 70
     1
102
RTVSPost2010Prop55
280
     0
102
RTVSPost2010PropOp55
 70
     1
102
RTVSPost2010Prop56
140
1.0
102
RTVSPost2010PropOp56
 70
     1
102
RTVSPost2010Prop57
140
1.0
102
RTVSPost2010PropOp57
 70
     1
102
RTVSPropertyOp0
 70
     1
102
RTVSPropertyOp1
 70
     1
102
RTVSPropertyOp2
 70
     1
102
RTVSPropertyOp3
 70
     1
102
RTVSPropertyOp4
 70
     1
102
RTVSPropertyOp5
 70
     1
102
RTVSPropertyOp6
 70
     1
102
RTVSPropertyOp7
 70
     1
102
RTVSPropertyOp8
 70
     1
102
RTVSPropertyOp9
 70
     1
102
RTVSPropertyOp10
 70
     1
102
RTVSPropertyOp11
 70
     1
102
RTVSPropertyOp12
 70
     1
102
RTVSPropertyOp13
 70
     1
102
RTVSPropertyOp14
 70
     1
102
RTVSPropertyOp15
 70
     1
102
RTVSPropertyOp16
 70
     1
102
RTVSPropertyOp17
 70
     1
102
RTVSPropertyOp18
 70
     1
102
RTVSPropertyOp19
 70
     1
102
RTVSPropertyOp20
 70
     1
102
RTVSPropertyOp21
 70
     1
102
RTVSPropertyOp22
 70
     1
102
RTVSPropertyOp23
 70
     1
102
RTVSPropertyOp24
 70
     1
102
RTVSPropertyOp25
 70
     1
102
RTVSPropertyOp26
 70
     1
102
RTVSPropertyOp27
 70
     1
102
RTVSPropertyOp28
 70
     1
102
RTVSPropertyOp29
 70
     1
102
RTVSPropertyOp30
 70
     1
102
RTVSPropertyOp31
 70
     1
102
RTVSPropertyOp32
 70
     1
102
RTVSPropertyOp33
 70
     1
102
RTVSPropertyOp34
 70
     1
102
RTVSPropertyOp35
 70
     1
102
RTVSPropertyOp36
 70
     1
102
RTVSPropertyOp37
 70
     1
102
RTVSPropertyOp38
 70
     1
102
RTVSPropertyOp39
 70
     1
102
RTVSPropertyOp40
 70
     1
102
RTVSPropertyOp41
 70
     1
102
RTVSPropertyOp42
 70
     1
102
RTVSPropertyOp43
 70
     1
102
RTVSPropertyOp44
 70
     1
102
RTVSPropertyOp45
 70
     1
102
RTVSPropertyOp46
 70
     1
102
RTVSPropertyOp47
 70
     1
102
RTVSPropertyOp48
 70
     1
102
RTVSPropertyOp49
 70
     1
102
RTVSPropertyOp50
 70
     1
102
RTVSPropertyOp51
 70
     0
102
RTVSPropertyOp52
 70
     0
102
RTVSPropertyOp53
 70
     1
102
RTVSPropertyOp54
 70
     1
102
RTVSPropertyOp55
 70
     1
102
RTVSPropertyOp56
 70
     1
102
RTVSPropertyOp57
 70
     1
102
RTVSPropertyOp58
 70
     1
102
RTVSPropertyOp59
 70
     1
102
RTVSPropertyOp60
 70
     1
102
RTVSPropertyOp61
 70
     1
102
RTVSPropertyOp62
 70
     1
  0
XRECORD
  5
F42F3
102
{ACAD_REACTORS
330
F42F2
102
}
330
F42F2
100
AcDbXrecord
280
     1
102
RTVSPost2010Prop28
280
     0
102
RTVSPost2010PropOp28
 70
     1
102
RTVSPost2010Prop29
280
     1
102
RTVSPost2010PropOp29
 70
     1
102
RTVSPost2010Prop30
280
     1
102
RTVSPost2010PropOp30
 70
     1
102
RTVSPost2010Prop31
280
     0
102
RTVSPost2010PropOp31
 70
     1
102
RTVSPost2010Prop32
280
     0
102
RTVSPost2010PropOp32
 70
     1
102
RTVSPost2010Prop33
280
     0
102
RTVSPost2010PropOp33
 70
     1
102
RTVSPost2010Prop34
280
     0
102
RTVSPost2010PropOp34
 70
     1
102
RTVSPost2010Prop35
280
     0
102
RTVSPost2010PropOp35
 70
     1
102
RTVSPost2010Prop36
280
     0
102
RTVSPost2010PropOp36
 70
     1
102
RTVSPost2010Prop37
 90
       50
102
RTVSPost2010PropOp37
 70
     1
102
RTVSPost2010Prop38
140
0.0
102
RTVSPost2010PropOp38
 70
     1
102
RTVSPost2010Prop39
140
1.0
102
RTVSPost2010PropOp39
 70
     1
102
RTVSPost2010Prop40
 90
        0
102
RTVSPost2010PropOp40
 70
     1
102
RTVSPost2010Prop41ColorIndex
 90
       18
102
RTVSPost2010Prop41ColorRGB
 90
        0
102
RTVSPost2010PropOp41
 70
     1
102
RTVSPost2010Prop42
 90
       50
102
RTVSPost2010PropOp42
 70
     1
102
RTVSPost2010Prop43
 90
        3
102
RTVSPost2010PropOp43
 70
     1
102
RTVSPost2010Prop44ColorIndex
 90
        5
102
RTVSPost2010Prop44ColorRGB
 90
      255
102
RTVSPost2010PropOp44
 70
     1
102
RTVSPost2010Prop45
280
     0
102
RTVSPost2010PropOp45
 70
     1
102
RTVSPost2010Prop46
 90
       50
102
RTVSPost2010PropOp46
 70
     1
102
RTVSPost2010Prop47
 90
       50
102
RTVSPost2010PropOp47
 70
     1
102
RTVSPost2010Prop48
 90
       50
102
RTVSPost2010PropOp48
 70
     1
102
RTVSPost2010Prop49
280
     0
102
RTVSPost2010PropOp49
 70
     1
102
RTVSPost2010Prop50
 90
       50
102
RTVSPost2010PropOp50
 70
     1
102
RTVSPost2010Prop51ColorIndex
 90
      256
102
RTVSPost2010Prop51ColorRGB
 90
-16777216
102
RTVSPost2010PropOp51
 70
     0
102
RTVSPost2010Prop52
140
1.0
102
RTVSPost2010PropOp52
 70
     0
102
RTVSPost2010Prop53
 90
        2
102
RTVSPost2010PropOp53
 70
     1
102
RTVSPost2010Prop54
  1
strokes_ogs.tif
102
RTVSPost2010PropOp54
 70
     1
102
RTVSPost2010Prop55
280
     0
102
RTVSPost2010PropOp55
 70
     1
102
RTVSPost2010Prop56
140
1.0
102
RTVSPost2010PropOp56
 70
     1
102
RTVSPost2010Prop57
140
1.0
102
RTVSPost2010PropOp57
 70
     1
102
RTVSPropertyOp0
 70
     1
102
RTVSPropertyOp1
 70
     1
102
RTVSPropertyOp2
 70
     1
102
RTVSPropertyOp3
 70
     1
102
RTVSPropertyOp4
 70
     1
102
RTVSPropertyOp5
 70
     1
102
RTVSPropertyOp6
 70
     1
102
RTVSPropertyOp7
 70
     1
102
RTVSPropertyOp8
 70
     1
102
RTVSPropertyOp9
 70
     1
102
RTVSPropertyOp10
 70
     1
102
RTVSPropertyOp11
 70
     1
102
RTVSPropertyOp12
 70
     1
102
RTVSPropertyOp13
 70
     1
102
RTVSPropertyOp14
 70
     1
102
RTVSPropertyOp15
 70
     1
102
RTVSPropertyOp16
 70
     1
102
RTVSPropertyOp17
 70
     1
102
RTVSPropertyOp18
 70
     1
102
RTVSPropertyOp19
 70
     1
102
RTVSPropertyOp20
 70
     1
102
RTVSPropertyOp21
 70
     1
102
RTVSPropertyOp22
 70
     1
102
RTVSPropertyOp23
 70
     1
102
RTVSPropertyOp24
 70
     1
102
RTVSPropertyOp25
 70
     1
102
RTVSPropertyOp26
 70
     1
102
RTVSPropertyOp27
 70
     1
102
RTVSPropertyOp28
 70
     1
102
RTVSPropertyOp29
 70
     1
102
RTVSPropertyOp30
 70
     1
102
RTVSPropertyOp31
 70
     1
102
RTVSPropertyOp32
 70
     1
102
RTVSPropertyOp33
 70
     1
102
RTVSPropertyOp34
 70
     1
102
RTVSPropertyOp35
 70
     1
102
RTVSPropertyOp36
 70
     1
102
RTVSPropertyOp37
 70
     1
102
RTVSPropertyOp38
 70
     1
102
RTVSPropertyOp39
 70
     1
102
RTVSPropertyOp40
 70
     1
102
RTVSPropertyOp41
 70
     1
102
RTVSPropertyOp42
 70
     1
102
RTVSPropertyOp43
 70
     1
102
RTVSPropertyOp44
 70
     1
102
RTVSPropertyOp45
 70
     1
102
RTVSPropertyOp46
 70
     1
102
RTVSPropertyOp47
 70
     1
102
RTVSPropertyOp48
 70
     1
102
RTVSPropertyOp49
 70
     1
102
RTVSPropertyOp50
 70
     1
102
RTVSPropertyOp51
 70
     0
102
RTVSPropertyOp52
 70
     0
102
RTVSPropertyOp53
 70
     1
102
RTVSPropertyOp54
 70
     1
102
RTVSPropertyOp55
 70
     1
102
RTVSPropertyOp56
 70
     1
102
RTVSPropertyOp57
 70
     1
102
RTVSPropertyOp58
 70
     1
102
RTVSPropertyOp59
 70
     1
102
RTVSPropertyOp60
 70
     1
102
RTVSPropertyOp61
 70
     1
102
RTVSPropertyOp62
 70
     1
  0
XRECORD
  5
F42F1
102
{ACAD_REACTORS
330
F42F0
102
}
330
F42F0
100
AcDbXrecord
280
     1
102
RTVSPost2010Prop28
280
     0
102
RTVSPost2010PropOp28
 70
     1
102
RTVSPost2010Prop29
280
     1
102
RTVSPost2010PropOp29
 70
     1
102
RTVSPost2010Prop30
280
     1
102
RTVSPost2010PropOp30
 70
     1
102
RTVSPost2010Prop31
280
     0
102
RTVSPost2010PropOp31
 70
     1
102
RTVSPost2010Prop32
280
     0
102
RTVSPost2010PropOp32
 70
     1
102
RTVSPost2010Prop33
280
     0
102
RTVSPost2010PropOp33
 70
     1
102
RTVSPost2010Prop34
280
     0
102
RTVSPost2010PropOp34
 70
     1
102
RTVSPost2010Prop35
280
     0
102
RTVSPost2010PropOp35
 70
     1
102
RTVSPost2010Prop36
280
     0
102
RTVSPost2010PropOp36
 70
     1
102
RTVSPost2010Prop37
 90
       50
102
RTVSPost2010PropOp37
 70
     1
102
RTVSPost2010Prop38
140
0.0
102
RTVSPost2010PropOp38
 70
     1
102
RTVSPost2010Prop39
140
1.0
102
RTVSPost2010PropOp39
 70
     1
102
RTVSPost2010Prop40
 90
        0
102
RTVSPost2010PropOp40
 70
     1
102
RTVSPost2010Prop41ColorIndex
 90
       18
102
RTVSPost2010Prop41ColorRGB
 90
        0
102
RTVSPost2010PropOp41
 70
     1
102
RTVSPost2010Prop42
 90
       50
102
RTVSPost2010PropOp42
 70
     1
102
RTVSPost2010Prop43
 90
        3
102
RTVSPost2010PropOp43
 70
     1
102
RTVSPost2010Prop44ColorIndex
 90
        5
102
RTVSPost2010Prop44ColorRGB
 90
      255
102
RTVSPost2010PropOp44
 70
     1
102
RTVSPost2010Prop45
280
     0
102
RTVSPost2010PropOp45
 70
     1
102
RTVSPost2010Prop46
 90
       50
102
RTVSPost2010PropOp46
 70
     1
102
RTVSPost2010Prop47
 90
       50
102
RTVSPost2010PropOp47
 70
     1
102
RTVSPost2010Prop48
 90
       50
102
RTVSPost2010PropOp48
 70
     1
102
RTVSPost2010Prop49
280
     0
102
RTVSPost2010PropOp49
 70
     1
102
RTVSPost2010Prop50
 90
       50
102
RTVSPost2010PropOp50
 70
     1
102
RTVSPost2010Prop51ColorIndex
 90
      256
102
RTVSPost2010Prop51ColorRGB
 90
-16777216
102
RTVSPost2010PropOp51
 70
     0
102
RTVSPost2010Prop52
140
1.0
102
RTVSPost2010PropOp52
 70
     0
102
RTVSPost2010Prop53
 90
        2
102
RTVSPost2010PropOp53
 70
     1
102
RTVSPost2010Prop54
  1
strokes_ogs.tif
102
RTVSPost2010PropOp54
 70
     1
102
RTVSPost2010Prop55
280
     0
102
RTVSPost2010PropOp55
 70
     1
102
RTVSPost2010Prop56
140
1.0
102
RTVSPost2010PropOp56
 70
     1
102
RTVSPost2010Prop57
140
1.0
102
RTVSPost2010PropOp57
 70
     1
102
RTVSPropertyOp0
 70
     1
102
RTVSPropertyOp1
 70
     1
102
RTVSPropertyOp2
 70
     1
102
RTVSPropertyOp3
 70
     1
102
RTVSPropertyOp4
 70
     1
102
RTVSPropertyOp5
 70
     1
102
RTVSPropertyOp6
 70
     1
102
RTVSPropertyOp7
 70
     1
102
RTVSPropertyOp8
 70
     1
102
RTVSPropertyOp9
 70
     1
102
RTVSPropertyOp10
 70
     1
102
RTVSPropertyOp11
 70
     1
102
RTVSPropertyOp12
 70
     1
102
RTVSPropertyOp13
 70
     1
102
RTVSPropertyOp14
 70
     1
102
RTVSPropertyOp15
 70
     1
102
RTVSPropertyOp16
 70
     1
102
RTVSPropertyOp17
 70
     1
102
RTVSPropertyOp18
 70
     1
102
RTVSPropertyOp19
 70
     1
102
RTVSPropertyOp20
 70
     1
102
RTVSPropertyOp21
 70
     1
102
RTVSPropertyOp22
 70
     1
102
RTVSPropertyOp23
 70
     1
102
RTVSPropertyOp24
 70
     1
102
RTVSPropertyOp25
 70
     1
102
RTVSPropertyOp26
 70
     1
102
RTVSPropertyOp27
 70
     1
102
RTVSPropertyOp28
 70
     1
102
RTVSPropertyOp29
 70
     1
102
RTVSPropertyOp30
 70
     1
102
RTVSPropertyOp31
 70
     1
102
RTVSPropertyOp32
 70
     1
102
RTVSPropertyOp33
 70
     1
102
RTVSPropertyOp34
 70
     1
102
RTVSPropertyOp35
 70
     1
102
RTVSPropertyOp36
 70
     1
102
RTVSPropertyOp37
 70
     1
102
RTVSPropertyOp38
 70
     1
102
RTVSPropertyOp39
 70
     1
102
RTVSPropertyOp40
 70
     1
102
RTVSPropertyOp41
 70
     1
102
RTVSPropertyOp42
 70
     1
102
RTVSPropertyOp43
 70
     1
102
RTVSPropertyOp44
 70
     1
102
RTVSPropertyOp45
 70
     1
102
RTVSPropertyOp46
 70
     1
102
RTVSPropertyOp47
 70
     1
102
RTVSPropertyOp48
 70
     1
102
RTVSPropertyOp49
 70
     1
102
RTVSPropertyOp50
 70
     1
102
RTVSPropertyOp51
 70
     0
102
RTVSPropertyOp52
 70
     0
102
RTVSPropertyOp53
 70
     1
102
RTVSPropertyOp54
 70
     1
102
RTVSPropertyOp55
 70
     1
102
RTVSPropertyOp56
 70
     1
102
RTVSPropertyOp57
 70
     1
102
RTVSPropertyOp58
 70
     1
102
RTVSPropertyOp59
 70
     1
102
RTVSPropertyOp60
 70
     1
102
RTVSPropertyOp61
 70
     1
102
RTVSPropertyOp62
 70
     1
  0
XRECORD
  5
F42EB
102
{ACAD_REACTORS
330
F42EA
102
}
330
F42EA
100
AcDbXrecord
280
     1
102
RTVSPost2010Prop28
280
     0
102
RTVSPost2010PropOp28
 70
     1
102
RTVSPost2010Prop29
280
     1
102
RTVSPost2010PropOp29
 70
     1
102
RTVSPost2010Prop30
280
     1
102
RTVSPost2010PropOp30
 70
     1
102
RTVSPost2010Prop31
280
     0
102
RTVSPost2010PropOp31
 70
     1
102
RTVSPost2010Prop32
280
     0
102
RTVSPost2010PropOp32
 70
     1
102
RTVSPost2010Prop33
280
     0
102
RTVSPost2010PropOp33
 70
     1
102
RTVSPost2010Prop34
280
     0
102
RTVSPost2010PropOp34
 70
     1
102
RTVSPost2010Prop35
280
     0
102
RTVSPost2010PropOp35
 70
     1
102
RTVSPost2010Prop36
280
     0
102
RTVSPost2010PropOp36
 70
     1
102
RTVSPost2010Prop37
 90
       50
102
RTVSPost2010PropOp37
 70
     1
102
RTVSPost2010Prop38
140
0.0
102
RTVSPost2010PropOp38
 70
     1
102
RTVSPost2010Prop39
140
1.0
102
RTVSPost2010PropOp39
 70
     1
102
RTVSPost2010Prop40
 90
        0
102
RTVSPost2010PropOp40
 70
     1
102
RTVSPost2010Prop41ColorIndex
 90
       18
102
RTVSPost2010Prop41ColorRGB
 90
        0
102
RTVSPost2010PropOp41
 70
     1
102
RTVSPost2010Prop42
 90
       50
102
RTVSPost2010PropOp42
 70
     1
102
RTVSPost2010Prop43
 90
        3
102
RTVSPost2010PropOp43
 70
     1
102
RTVSPost2010Prop44ColorIndex
 90
        5
102
RTVSPost2010Prop44ColorRGB
 90
      255
102
RTVSPost2010PropOp44
 70
     1
102
RTVSPost2010Prop45
280
     0
102
RTVSPost2010PropOp45
 70
     1
102
RTVSPost2010Prop46
 90
       50
102
RTVSPost2010PropOp46
 70
     1
102
RTVSPost2010Prop47
 90
       50
102
RTVSPost2010PropOp47
 70
     1
102
RTVSPost2010Prop48
 90
       50
102
RTVSPost2010PropOp48
 70
     1
102
RTVSPost2010Prop49
280
     0
102
RTVSPost2010PropOp49
 70
     1
102
RTVSPost2010Prop50
 90
       50
102
RTVSPost2010PropOp50
 70
     1
102
RTVSPost2010Prop51ColorIndex
 90
      256
102
RTVSPost2010Prop51ColorRGB
 90
-16777216
102
RTVSPost2010PropOp51
 70
     0
102
RTVSPost2010Prop52
140
1.0
102
RTVSPost2010PropOp52
 70
     0
102
RTVSPost2010Prop53
 90
        2
102
RTVSPost2010PropOp53
 70
     1
102
RTVSPost2010Prop54
  1
strokes_ogs.tif
102
RTVSPost2010PropOp54
 70
     1
102
RTVSPost2010Prop55
280
     0
102
RTVSPost2010PropOp55
 70
     1
102
RTVSPost2010Prop56
140
1.0
102
RTVSPost2010PropOp56
 70
     1
102
RTVSPost2010Prop57
140
1.0
102
RTVSPost2010PropOp57
 70
     1
102
RTVSPropertyOp0
 70
     1
102
RTVSPropertyOp1
 70
     1
102
RTVSPropertyOp2
 70
     1
102
RTVSPropertyOp3
 70
     1
102
RTVSPropertyOp4
 70
     1
102
RTVSPropertyOp5
 70
     1
102
RTVSPropertyOp6
 70
     1
102
RTVSPropertyOp7
 70
     1
102
RTVSPropertyOp8
 70
     1
102
RTVSPropertyOp9
 70
     1
102
RTVSPropertyOp10
 70
     1
102
RTVSPropertyOp11
 70
     1
102
RTVSPropertyOp12
 70
     1
102
RTVSPropertyOp13
 70
     1
102
RTVSPropertyOp14
 70
     1
102
RTVSPropertyOp15
 70
     1
102
RTVSPropertyOp16
 70
     1
102
RTVSPropertyOp17
 70
     1
102
RTVSPropertyOp18
 70
     1
102
RTVSPropertyOp19
 70
     1
102
RTVSPropertyOp20
 70
     1
102
RTVSPropertyOp21
 70
     1
102
RTVSPropertyOp22
 70
     1
102
RTVSPropertyOp23
 70
     1
102
RTVSPropertyOp24
 70
     1
102
RTVSPropertyOp25
 70
     1
102
RTVSPropertyOp26
 70
     1
102
RTVSPropertyOp27
 70
     1
102
RTVSPropertyOp28
 70
     1
102
RTVSPropertyOp29
 70
     1
102
RTVSPropertyOp30
 70
     1
102
RTVSPropertyOp31
 70
     1
102
RTVSPropertyOp32
 70
     1
102
RTVSPropertyOp33
 70
     1
102
RTVSPropertyOp34
 70
     1
102
RTVSPropertyOp35
 70
     1
102
RTVSPropertyOp36
 70
     1
102
RTVSPropertyOp37
 70
     1
102
RTVSPropertyOp38
 70
     1
102
RTVSPropertyOp39
 70
     1
102
RTVSPropertyOp40
 70
     1
102
RTVSPropertyOp41
 70
     1
102
RTVSPropertyOp42
 70
     1
102
RTVSPropertyOp43
 70
     1
102
RTVSPropertyOp44
 70
     1
102
RTVSPropertyOp45
 70
     1
102
RTVSPropertyOp46
 70
     1
102
RTVSPropertyOp47
 70
     1
102
RTVSPropertyOp48
 70
     1
102
RTVSPropertyOp49
 70
     1
102
RTVSPropertyOp50
 70
     1
102
RTVSPropertyOp51
 70
     0
102
RTVSPropertyOp52
 70
     0
102
RTVSPropertyOp53
 70
     1
102
RTVSPropertyOp54
 70
     1
102
RTVSPropertyOp55
 70
     1
102
RTVSPropertyOp56
 70
     1
102
RTVSPropertyOp57
 70
     1
102
RTVSPropertyOp58
 70
     1
102
RTVSPropertyOp59
 70
     1
102
RTVSPropertyOp60
 70
     1
102
RTVSPropertyOp61
 70
     1
102
RTVSPropertyOp62
 70
     1
  0
XRECORD
  5
F42ED
102
{ACAD_REACTORS
330
F42EC
102
}
330
F42EC
100
AcDbXrecord
280
     1
102
RTVSPost2010Prop28
280
     0
102
RTVSPost2010PropOp28
 70
     1
102
RTVSPost2010Prop29
280
     1
102
RTVSPost2010PropOp29
 70
     1
102
RTVSPost2010Prop30
280
     1
102
RTVSPost2010PropOp30
 70
     1
102
RTVSPost2010Prop31
280
     0
102
RTVSPost2010PropOp31
 70
     1
102
RTVSPost2010Prop32
280
     0
102
RTVSPost2010PropOp32
 70
     1
102
RTVSPost2010Prop33
280
     0
102
RTVSPost2010PropOp33
 70
     1
102
RTVSPost2010Prop34
280
     0
102
RTVSPost2010PropOp34
 70
     1
102
RTVSPost2010Prop35
280
     0
102
RTVSPost2010PropOp35
 70
     1
102
RTVSPost2010Prop36
280
     0
102
RTVSPost2010PropOp36
 70
     1
102
RTVSPost2010Prop37
 90
       50
102
RTVSPost2010PropOp37
 70
     1
102
RTVSPost2010Prop38
140
0.0
102
RTVSPost2010PropOp38
 70
     1
102
RTVSPost2010Prop39
140
1.0
102
RTVSPost2010PropOp39
 70
     1
102
RTVSPost2010Prop40
 90
        0
102
RTVSPost2010PropOp40
 70
     1
102
RTVSPost2010Prop41ColorIndex
 90
       18
102
RTVSPost2010Prop41ColorRGB
 90
        0
102
RTVSPost2010PropOp41
 70
     1
102
RTVSPost2010Prop42
 90
       50
102
RTVSPost2010PropOp42
 70
     1
102
RTVSPost2010Prop43
 90
        3
102
RTVSPost2010PropOp43
 70
     1
102
RTVSPost2010Prop44ColorIndex
 90
        5
102
RTVSPost2010Prop44ColorRGB
 90
      255
102
RTVSPost2010PropOp44
 70
     1
102
RTVSPost2010Prop45
280
     0
102
RTVSPost2010PropOp45
 70
     1
102
RTVSPost2010Prop46
 90
       50
102
RTVSPost2010PropOp46
 70
     1
102
RTVSPost2010Prop47
 90
       50
102
RTVSPost2010PropOp47
 70
     1
102
RTVSPost2010Prop48
 90
       50
102
RTVSPost2010PropOp48
 70
     1
102
RTVSPost2010Prop49
280
     0
102
RTVSPost2010PropOp49
 70
     1
102
RTVSPost2010Prop50
 90
       50
102
RTVSPost2010PropOp50
 70
     1
102
RTVSPost2010Prop51ColorIndex
 90
      256
102
RTVSPost2010Prop51ColorRGB
 90
-16777216
102
RTVSPost2010PropOp51
 70
     0
102
RTVSPost2010Prop52
140
1.0
102
RTVSPost2010PropOp52
 70
     0
102
RTVSPost2010Prop53
 90
        2
102
RTVSPost2010PropOp53
 70
     1
102
RTVSPost2010Prop54
  1
strokes_ogs.tif
102
RTVSPost2010PropOp54
 70
     1
102
RTVSPost2010Prop55
280
     0
102
RTVSPost2010PropOp55
 70
     1
102
RTVSPost2010Prop56
140
1.0
102
RTVSPost2010PropOp56
 70
     1
102
RTVSPost2010Prop57
140
1.0
102
RTVSPost2010PropOp57
 70
     1
102
RTVSPropertyOp0
 70
     1
102
RTVSPropertyOp1
 70
     1
102
RTVSPropertyOp2
 70
     1
102
RTVSPropertyOp3
 70
     1
102
RTVSPropertyOp4
 70
     1
102
RTVSPropertyOp5
 70
     1
102
RTVSPropertyOp6
 70
     1
102
RTVSPropertyOp7
 70
     1
102
RTVSPropertyOp8
 70
     1
102
RTVSPropertyOp9
 70
     1
102
RTVSPropertyOp10
 70
     1
102
RTVSPropertyOp11
 70
     1
102
RTVSPropertyOp12
 70
     1
102
RTVSPropertyOp13
 70
     1
102
RTVSPropertyOp14
 70
     1
102
RTVSPropertyOp15
 70
     1
102
RTVSPropertyOp16
 70
     1
102
RTVSPropertyOp17
 70
     1
102
RTVSPropertyOp18
 70
     1
102
RTVSPropertyOp19
 70
     1
102
RTVSPropertyOp20
 70
     1
102
RTVSPropertyOp21
 70
     1
102
RTVSPropertyOp22
 70
     1
102
RTVSPropertyOp23
 70
     1
102
RTVSPropertyOp24
 70
     1
102
RTVSPropertyOp25
 70
     1
102
RTVSPropertyOp26
 70
     1
102
RTVSPropertyOp27
 70
     1
102
RTVSPropertyOp28
 70
     1
102
RTVSPropertyOp29
 70
     1
102
RTVSPropertyOp30
 70
     1
102
RTVSPropertyOp31
 70
     1
102
RTVSPropertyOp32
 70
     1
102
RTVSPropertyOp33
 70
     1
102
RTVSPropertyOp34
 70
     1
102
RTVSPropertyOp35
 70
     1
102
RTVSPropertyOp36
 70
     1
102
RTVSPropertyOp37
 70
     1
102
RTVSPropertyOp38
 70
     1
102
RTVSPropertyOp39
 70
     1
102
RTVSPropertyOp40
 70
     1
102
RTVSPropertyOp41
 70
     1
102
RTVSPropertyOp42
 70
     1
102
RTVSPropertyOp43
 70
     1
102
RTVSPropertyOp44
 70
     1
102
RTVSPropertyOp45
 70
     1
102
RTVSPropertyOp46
 70
     1
102
RTVSPropertyOp47
 70
     1
102
RTVSPropertyOp48
 70
     1
102
RTVSPropertyOp49
 70
     1
102
RTVSPropertyOp50
 70
     1
102
RTVSPropertyOp51
 70
     0
102
RTVSPropertyOp52
 70
     0
102
RTVSPropertyOp53
 70
     1
102
RTVSPropertyOp54
 70
     1
102
RTVSPropertyOp55
 70
     1
102
RTVSPropertyOp56
 70
     1
102
RTVSPropertyOp57
 70
     1
102
RTVSPropertyOp58
 70
     1
102
RTVSPropertyOp59
 70
     1
102
RTVSPropertyOp60
 70
     1
102
RTVSPropertyOp61
 70
     1
102
RTVSPropertyOp62
 70
     1
  0
XRECORD
  5
F42E3
102
{ACAD_REACTORS
330
F42E2
102
}
330
F42E2
100
AcDbXrecord
280
     1
102
RTVSPost2010Prop28
280
     0
102
RTVSPost2010PropOp28
 70
     1
102
RTVSPost2010Prop29
280
     1
102
RTVSPost2010PropOp29
 70
     1
102
RTVSPost2010Prop30
280
     1
102
RTVSPost2010PropOp30
 70
     1
102
RTVSPost2010Prop31
280
     0
102
RTVSPost2010PropOp31
 70
     1
102
RTVSPost2010Prop32
280
     0
102
RTVSPost2010PropOp32
 70
     1
102
RTVSPost2010Prop33
280
     0
102
RTVSPost2010PropOp33
 70
     1
102
RTVSPost2010Prop34
280
     0
102
RTVSPost2010PropOp34
 70
     1
102
RTVSPost2010Prop35
280
     0
102
RTVSPost2010PropOp35
 70
     1
102
RTVSPost2010Prop36
280
     0
102
RTVSPost2010PropOp36
 70
     1
102
RTVSPost2010Prop37
 90
       50
102
RTVSPost2010PropOp37
 70
     1
102
RTVSPost2010Prop38
140
0.0
102
RTVSPost2010PropOp38
 70
     1
102
RTVSPost2010Prop39
140
1.0
102
RTVSPost2010PropOp39
 70
     1
102
RTVSPost2010Prop40
 90
        0
102
RTVSPost2010PropOp40
 70
     1
102
RTVSPost2010Prop41ColorIndex
 90
       18
102
RTVSPost2010Prop41ColorRGB
 90
        0
102
RTVSPost2010PropOp41
 70
     1
102
RTVSPost2010Prop42
 90
       50
102
RTVSPost2010PropOp42
 70
     1
102
RTVSPost2010Prop43
 90
        3
102
RTVSPost2010PropOp43
 70
     1
102
RTVSPost2010Prop44ColorIndex
 90
        5
102
RTVSPost2010Prop44ColorRGB
 90
      255
102
RTVSPost2010PropOp44
 70
     1
102
RTVSPost2010Prop45
280
     0
102
RTVSPost2010PropOp45
 70
     1
102
RTVSPost2010Prop46
 90
       50
102
RTVSPost2010PropOp46
 70
     1
102
RTVSPost2010Prop47
 90
       50
102
RTVSPost2010PropOp47
 70
     1
102
RTVSPost2010Prop48
 90
       50
102
RTVSPost2010PropOp48
 70
     1
102
RTVSPost2010Prop49
280
     0
102
RTVSPost2010PropOp49
 70
     1
102
RTVSPost2010Prop50
 90
       50
102
RTVSPost2010PropOp50
 70
     1
102
RTVSPost2010Prop51ColorIndex
 90
      256
102
RTVSPost2010Prop51ColorRGB
 90
-16777216
102
RTVSPost2010PropOp51
 70
     0
102
RTVSPost2010Prop52
140
1.0
102
RTVSPost2010PropOp52
 70
     0
102
RTVSPost2010Prop53
 90
        2
102
RTVSPost2010PropOp53
 70
     1
102
RTVSPost2010Prop54
  1
strokes_ogs.tif
102
RTVSPost2010PropOp54
 70
     1
102
RTVSPost2010Prop55
280
     0
102
RTVSPost2010PropOp55
 70
     1
102
RTVSPost2010Prop56
140
1.0
102
RTVSPost2010PropOp56
 70
     1
102
RTVSPost2010Prop57
140
1.0
102
RTVSPost2010PropOp57
 70
     1
102
RTVSPropertyOp0
 70
     1
102
RTVSPropertyOp1
 70
     1
102
RTVSPropertyOp2
 70
     1
102
RTVSPropertyOp3
 70
     1
102
RTVSPropertyOp4
 70
     1
102
RTVSPropertyOp5
 70
     1
102
RTVSPropertyOp6
 70
     1
102
RTVSPropertyOp7
 70
     1
102
RTVSPropertyOp8
 70
     1
102
RTVSPropertyOp9
 70
     1
102
RTVSPropertyOp10
 70
     1
102
RTVSPropertyOp11
 70
     1
102
RTVSPropertyOp12
 70
     1
102
RTVSPropertyOp13
 70
     1
102
RTVSPropertyOp14
 70
     1
102
RTVSPropertyOp15
 70
     1
102
RTVSPropertyOp16
 70
     1
102
RTVSPropertyOp17
 70
     1
102
RTVSPropertyOp18
 70
     1
102
RTVSPropertyOp19
 70
     1
102
RTVSPropertyOp20
 70
     1
102
RTVSPropertyOp21
 70
     1
102
RTVSPropertyOp22
 70
     1
102
RTVSPropertyOp23
 70
     1
102
RTVSPropertyOp24
 70
     1
102
RTVSPropertyOp25
 70
     1
102
RTVSPropertyOp26
 70
     1
102
RTVSPropertyOp27
 70
     1
102
RTVSPropertyOp28
 70
     1
102
RTVSPropertyOp29
 70
     1
102
RTVSPropertyOp30
 70
     1
102
RTVSPropertyOp31
 70
     1
102
RTVSPropertyOp32
 70
     1
102
RTVSPropertyOp33
 70
     1
102
RTVSPropertyOp34
 70
     1
102
RTVSPropertyOp35
 70
     1
102
RTVSPropertyOp36
 70
     1
102
RTVSPropertyOp37
 70
     1
102
RTVSPropertyOp38
 70
     1
102
RTVSPropertyOp39
 70
     1
102
RTVSPropertyOp40
 70
     1
102
RTVSPropertyOp41
 70
     1
102
RTVSPropertyOp42
 70
     1
102
RTVSPropertyOp43
 70
     1
102
RTVSPropertyOp44
 70
     1
102
RTVSPropertyOp45
 70
     1
102
RTVSPropertyOp46
 70
     1
102
RTVSPropertyOp47
 70
     1
102
RTVSPropertyOp48
 70
     1
102
RTVSPropertyOp49
 70
     1
102
RTVSPropertyOp50
 70
     1
102
RTVSPropertyOp51
 70
     0
102
RTVSPropertyOp52
 70
     0
102
RTVSPropertyOp53
 70
     1
102
RTVSPropertyOp54
 70
     1
102
RTVSPropertyOp55
 70
     1
102
RTVSPropertyOp56
 70
     1
102
RTVSPropertyOp57
 70
     1
102
RTVSPropertyOp58
 70
     1
102
RTVSPropertyOp59
 70
     1
102
RTVSPropertyOp60
 70
     1
102
RTVSPropertyOp61
 70
     1
102
RTVSPropertyOp62
 70
     1
  0
XRECORD
  5
F42D7
102
{ACAD_REACTORS
330
F42D6
102
}
330
F42D6
100
AcDbXrecord
280
     1
102
RTVSPost2010Prop28
280
     0
102
RTVSPost2010PropOp28
 70
     1
102
RTVSPost2010Prop29
280
     1
102
RTVSPost2010PropOp29
 70
     1
102
RTVSPost2010Prop30
280
     1
102
RTVSPost2010PropOp30
 70
     1
102
RTVSPost2010Prop31
280
     0
102
RTVSPost2010PropOp31
 70
     1
102
RTVSPost2010Prop32
280
     0
102
RTVSPost2010PropOp32
 70
     1
102
RTVSPost2010Prop33
280
     0
102
RTVSPost2010PropOp33
 70
     1
102
RTVSPost2010Prop34
280
     0
102
RTVSPost2010PropOp34
 70
     1
102
RTVSPost2010Prop35
280
     0
102
RTVSPost2010PropOp35
 70
     1
102
RTVSPost2010Prop36
280
     0
102
RTVSPost2010PropOp36
 70
     1
102
RTVSPost2010Prop37
 90
       50
102
RTVSPost2010PropOp37
 70
     1
102
RTVSPost2010Prop38
140
0.0
102
RTVSPost2010PropOp38
 70
     1
102
RTVSPost2010Prop39
140
1.0
102
RTVSPost2010PropOp39
 70
     1
102
RTVSPost2010Prop40
 90
        0
102
RTVSPost2010PropOp40
 70
     1
102
RTVSPost2010Prop41ColorIndex
 90
       18
102
RTVSPost2010Prop41ColorRGB
 90
        0
102
RTVSPost2010PropOp41
 70
     1
102
RTVSPost2010Prop42
 90
       50
102
RTVSPost2010PropOp42
 70
     1
102
RTVSPost2010Prop43
 90
        3
102
RTVSPost2010PropOp43
 70
     1
102
RTVSPost2010Prop44ColorIndex
 90
        5
102
RTVSPost2010Prop44ColorRGB
 90
      255
102
RTVSPost2010PropOp44
 70
     1
102
RTVSPost2010Prop45
280
     0
102
RTVSPost2010PropOp45
 70
     1
102
RTVSPost2010Prop46
 90
       50
102
RTVSPost2010PropOp46
 70
     1
102
RTVSPost2010Prop47
 90
       50
102
RTVSPost2010PropOp47
 70
     1
102
RTVSPost2010Prop48
 90
       50
102
RTVSPost2010PropOp48
 70
     1
102
RTVSPost2010Prop49
280
     0
102
RTVSPost2010PropOp49
 70
     1
102
RTVSPost2010Prop50
 90
       50
102
RTVSPost2010PropOp50
 70
     1
102
RTVSPost2010Prop51ColorIndex
 90
      256
102
RTVSPost2010Prop51ColorRGB
 90
-16777216
102
RTVSPost2010PropOp51
 70
     0
102
RTVSPost2010Prop52
140
1.0
102
RTVSPost2010PropOp52
 70
     0
102
RTVSPost2010Prop53
 90
        2
102
RTVSPost2010PropOp53
 70
     1
102
RTVSPost2010Prop54
  1
strokes_ogs.tif
102
RTVSPost2010PropOp54
 70
     1
102
RTVSPost2010Prop55
280
     0
102
RTVSPost2010PropOp55
 70
     1
102
RTVSPost2010Prop56
140
1.0
102
RTVSPost2010PropOp56
 70
     1
102
RTVSPost2010Prop57
140
1.0
102
RTVSPost2010PropOp57
 70
     1
102
RTVSPropertyOp0
 70
     1
102
RTVSPropertyOp1
 70
     1
102
RTVSPropertyOp2
 70
     1
102
RTVSPropertyOp3
 70
     1
102
RTVSPropertyOp4
 70
     1
102
RTVSPropertyOp5
 70
     1
102
RTVSPropertyOp6
 70
     1
102
RTVSPropertyOp7
 70
     1
102
RTVSPropertyOp8
 70
     1
102
RTVSPropertyOp9
 70
     1
102
RTVSPropertyOp10
 70
     1
102
RTVSPropertyOp11
 70
     1
102
RTVSPropertyOp12
 70
     1
102
RTVSPropertyOp13
 70
     1
102
RTVSPropertyOp14
 70
     1
102
RTVSPropertyOp15
 70
     1
102
RTVSPropertyOp16
 70
     1
102
RTVSPropertyOp17
 70
     1
102
RTVSPropertyOp18
 70
     1
102
RTVSPropertyOp19
 70
     1
102
RTVSPropertyOp20
 70
     1
102
RTVSPropertyOp21
 70
     1
102
RTVSPropertyOp22
 70
     1
102
RTVSPropertyOp23
 70
     1
102
RTVSPropertyOp24
 70
     1
102
RTVSPropertyOp25
 70
     1
102
RTVSPropertyOp26
 70
     1
102
RTVSPropertyOp27
 70
     1
102
RTVSPropertyOp28
 70
     1
102
RTVSPropertyOp29
 70
     1
102
RTVSPropertyOp30
 70
     1
102
RTVSPropertyOp31
 70
     1
102
RTVSPropertyOp32
 70
     1
102
RTVSPropertyOp33
 70
     1
102
RTVSPropertyOp34
 70
     1
102
RTVSPropertyOp35
 70
     1
102
RTVSPropertyOp36
 70
     1
102
RTVSPropertyOp37
 70
     1
102
RTVSPropertyOp38
 70
     1
102
RTVSPropertyOp39
 70
     1
102
RTVSPropertyOp40
 70
     1
102
RTVSPropertyOp41
 70
     1
102
RTVSPropertyOp42
 70
     1
102
RTVSPropertyOp43
 70
     1
102
RTVSPropertyOp44
 70
     1
102
RTVSPropertyOp45
 70
     1
102
RTVSPropertyOp46
 70
     1
102
RTVSPropertyOp47
 70
     1
102
RTVSPropertyOp48
 70
     1
102
RTVSPropertyOp49
 70
     1
102
RTVSPropertyOp50
 70
     1
102
RTVSPropertyOp51
 70
     0
102
RTVSPropertyOp52
 70
     0
102
RTVSPropertyOp53
 70
     1
102
RTVSPropertyOp54
 70
     1
102
RTVSPropertyOp55
 70
     1
102
RTVSPropertyOp56
 70
     1
102
RTVSPropertyOp57
 70
     1
102
RTVSPropertyOp58
 70
     1
102
RTVSPropertyOp59
 70
     1
102
RTVSPropertyOp60
 70
     1
102
RTVSPropertyOp61
 70
     1
102
RTVSPropertyOp62
 70
     1
  0
XRECORD
  5
F42EF
102
{ACAD_REACTORS
330
F42EE
102
}
330
F42EE
100
AcDbXrecord
280
     1
102
RTVSPost2010Prop28
280
     0
102
RTVSPost2010PropOp28
 70
     1
102
RTVSPost2010Prop29
280
     1
102
RTVSPost2010PropOp29
 70
     1
102
RTVSPost2010Prop30
280
     1
102
RTVSPost2010PropOp30
 70
     1
102
RTVSPost2010Prop31
280
     0
102
RTVSPost2010PropOp31
 70
     1
102
RTVSPost2010Prop32
280
     0
102
RTVSPost2010PropOp32
 70
     1
102
RTVSPost2010Prop33
280
     0
102
RTVSPost2010PropOp33
 70
     1
102
RTVSPost2010Prop34
280
     0
102
RTVSPost2010PropOp34
 70
     1
102
RTVSPost2010Prop35
280
     0
102
RTVSPost2010PropOp35
 70
     1
102
RTVSPost2010Prop36
280
     0
102
RTVSPost2010PropOp36
 70
     1
102
RTVSPost2010Prop37
 90
       50
102
RTVSPost2010PropOp37
 70
     1
102
RTVSPost2010Prop38
140
0.0
102
RTVSPost2010PropOp38
 70
     1
102
RTVSPost2010Prop39
140
1.0
102
RTVSPost2010PropOp39
 70
     1
102
RTVSPost2010Prop40
 90
        0
102
RTVSPost2010PropOp40
 70
     1
102
RTVSPost2010Prop41ColorIndex
 90
       18
102
RTVSPost2010Prop41ColorRGB
 90
        0
102
RTVSPost2010PropOp41
 70
     1
102
RTVSPost2010Prop42
 90
       50
102
RTVSPost2010PropOp42
 70
     1
102
RTVSPost2010Prop43
 90
        3
102
RTVSPost2010PropOp43
 70
     1
102
RTVSPost2010Prop44ColorIndex
 90
        5
102
RTVSPost2010Prop44ColorRGB
 90
      255
102
RTVSPost2010PropOp44
 70
     1
102
RTVSPost2010Prop45
280
     0
102
RTVSPost2010PropOp45
 70
     1
102
RTVSPost2010Prop46
 90
       50
102
RTVSPost2010PropOp46
 70
     1
102
RTVSPost2010Prop47
 90
       50
102
RTVSPost2010PropOp47
 70
     1
102
RTVSPost2010Prop48
 90
       50
102
RTVSPost2010PropOp48
 70
     1
102
RTVSPost2010Prop49
280
     0
102
RTVSPost2010PropOp49
 70
     1
102
RTVSPost2010Prop50
 90
       50
102
RTVSPost2010PropOp50
 70
     1
102
RTVSPost2010Prop51ColorIndex
 90
      256
102
RTVSPost2010Prop51ColorRGB
 90
-16777216
102
RTVSPost2010PropOp51
 70
     0
102
RTVSPost2010Prop52
140
1.0
102
RTVSPost2010PropOp52
 70
     0
102
RTVSPost2010Prop53
 90
        2
102
RTVSPost2010PropOp53
 70
     1
102
RTVSPost2010Prop54
  1
strokes_ogs.tif
102
RTVSPost2010PropOp54
 70
     1
102
RTVSPost2010Prop55
280
     0
102
RTVSPost2010PropOp55
 70
     1
102
RTVSPost2010Prop56
140
1.0
102
RTVSPost2010PropOp56
 70
     1
102
RTVSPost2010Prop57
140
1.0
102
RTVSPost2010PropOp57
 70
     1
102
RTVSPropertyOp0
 70
     1
102
RTVSPropertyOp1
 70
     1
102
RTVSPropertyOp2
 70
     1
102
RTVSPropertyOp3
 70
     1
102
RTVSPropertyOp4
 70
     1
102
RTVSPropertyOp5
 70
     1
102
RTVSPropertyOp6
 70
     1
102
RTVSPropertyOp7
 70
     1
102
RTVSPropertyOp8
 70
     1
102
RTVSPropertyOp9
 70
     1
102
RTVSPropertyOp10
 70
     1
102
RTVSPropertyOp11
 70
     1
102
RTVSPropertyOp12
 70
     1
102
RTVSPropertyOp13
 70
     1
102
RTVSPropertyOp14
 70
     1
102
RTVSPropertyOp15
 70
     1
102
RTVSPropertyOp16
 70
     1
102
RTVSPropertyOp17
 70
     1
102
RTVSPropertyOp18
 70
     1
102
RTVSPropertyOp19
 70
     1
102
RTVSPropertyOp20
 70
     1
102
RTVSPropertyOp21
 70
     1
102
RTVSPropertyOp22
 70
     1
102
RTVSPropertyOp23
 70
     1
102
RTVSPropertyOp24
 70
     1
102
RTVSPropertyOp25
 70
     1
102
RTVSPropertyOp26
 70
     1
102
RTVSPropertyOp27
 70
     1
102
RTVSPropertyOp28
 70
     1
102
RTVSPropertyOp29
 70
     1
102
RTVSPropertyOp30
 70
     1
102
RTVSPropertyOp31
 70
     1
102
RTVSPropertyOp32
 70
     1
102
RTVSPropertyOp33
 70
     1
102
RTVSPropertyOp34
 70
     1
102
RTVSPropertyOp35
 70
     1
102
RTVSPropertyOp36
 70
     1
102
RTVSPropertyOp37
 70
     1
102
RTVSPropertyOp38
 70
     1
102
RTVSPropertyOp39
 70
     1
102
RTVSPropertyOp40
 70
     1
102
RTVSPropertyOp41
 70
     1
102
RTVSPropertyOp42
 70
     1
102
RTVSPropertyOp43
 70
     1
102
RTVSPropertyOp44
 70
     1
102
RTVSPropertyOp45
 70
     1
102
RTVSPropertyOp46
 70
     1
102
RTVSPropertyOp47
 70
     1
102
RTVSPropertyOp48
 70
     1
102
RTVSPropertyOp49
 70
     1
102
RTVSPropertyOp50
 70
     1
102
RTVSPropertyOp51
 70
     0
102
RTVSPropertyOp52
 70
     0
102
RTVSPropertyOp53
 70
     1
102
RTVSPropertyOp54
 70
     1
102
RTVSPropertyOp55
 70
     1
102
RTVSPropertyOp56
 70
     1
102
RTVSPropertyOp57
 70
     1
102
RTVSPropertyOp58
 70
     1
102
RTVSPropertyOp59
 70
     1
102
RTVSPropertyOp60
 70
     1
102
RTVSPropertyOp61
 70
     1
102
RTVSPropertyOp62
 70
     1
  0
ENDSEC
  0
EOF
